Oops, an error
Loading. Please wait.

Supersupersticioso tab

by Pez
21 views 1 this week
no commentswrite comment
1 2 3 4 5
3 more votes to show rating
add to favorites
×
Save as Personal and add changes to this tab that will be seen only by you. Learn more ›
×
You can save this tab as Personal to edit and correct it or add notes. All changes will be seen only by you. Learn more »
launch autoscroll
font size
0
reset
how to read this tab
guitar tuner
edit
Autoscroll
slow
fast
+/-
esc
set tempo
stop
base 1: A5 A#5

base 2: D5 A5 A#5 F#5

Riff 1:
e|---353---5-------------------|
B|-5-----5---563---------------|
G|-----------------------------|
D|-----------------------------|
A|-----------------------------|
E|-----------------------------|

Riff 2:
e|--------------|
B|-35-56-5------|
G|--------------|
D|--------------|
A|--------------|
E|--------------|

Riff 3:
e|---------353-----------------|
B|-35--56------5-6-563---------|
G|---------------------5-3-2---|
D|-----------------------------|
A|-----------------------------|
E|-----------------------------|

riff 4:
e|---------3----|
B|-35-56-5---5--|
G|--------------|
D|--------------|
A|--------------|
E|--------------|

riff 5:
e|--------------|
B|-35-----------|
G|----5-3-2-----|
D|--------------|
A|--------------|
E|--------------|

riff 6:
e|---------------------------1------------------|
B|---------------------------1------------------|
G|------2------3-----2-----3--------------------|
D|----2------3-----2-----3----------------------|
A|--0------1-----0-----1------------------------|
E|----------------------------------------------|

intro:
sobre la Base 1 hace:
Riff 1 x3
Riff 2 x1
Riff 1 x2
Riff 3 x1


riff 6 x1

(repite el riff 6)
Tiempo, rueda cruel,
qué tiempo nos tocó vivir.
Hombre has hecho daño
y por tu daño has de morir.

base 1 x8

riff 6
Agua, lavará la tierra
de todo este mal.
Los que quedan,
si es que quedan,
tendrán que empezar
todo de nuevo.

base 1 x8

Base 2 x2
Me invade el temor,
supersupersticioso.

mientras toca Base 1 x8 van los riffs asi:

Riff 1 x3
Riff 4
Riff 1 x3
Riff 5

Tierra se abrirá,
el fuego nos consumirá,
o será un cometa
el que al planeta hará estallar.

Me invade el temor,
supersupersticioso.

Me invade el temor,
supersupersticioso.

            
            
Suggest correction
Creating personal tab
Creating personal tab
You can edit any tab online and save it as your Personal.

You can edit, replace or remove any tab part or add personal notes – all changes will be seen only by you.

Personal tabs can be accessed anytime from any device, even offline.
Learn more »
Give kudos to tab author, rate the tab!
1 2 3 4 5
comments
print report bad tab
guest
Wanna post a correction for this tab? Suggest correction