Oops, an error
Loading. Please wait.

Viento Destino En Vidamar tab

by Pez
34 views 1 this week
no commentswrite comment
1 2 3 4 5
3 more votes to show rating
add to favorites
×
Save as Personal and add changes to this tab that will be seen only by you. Learn more ›
×
You can save this tab as Personal to edit and correct it or add notes. All changes will be seen only by you. Learn more »
launch autoscroll
font size
0
reset
how to read this tab
guitar tuner
edit
Autoscroll
slow
fast
+/-
esc
set tempo
stop
Intro

e-|----------------------------------------------- |
B-|----------------------------------------------- |
G-|----------------------------------------------- |
D-|----------------------------------7--------4--- |
A-|-------5-4-------4-5--------4-5-7---7--5-4----- |
E-|-5-0-------7-5-3-----3--0---------------------- |
                                                   | (X2)
E-|---------------------------------               |
B-|---------------------------------               |
G-|---------------------------------               |
D-|-------------------------6-7-----               |
B-|-7-5-----7------4--5--7------5---               |
E-|-----7-0----5-7------------------               |
                                                  /

 Bm                 F#m
 Sigo el camino del cruel desatino,
    G          F#m
 yo voy para allá
 Bm                  F#m
 donde me lleve este vientodestino
      G      F#m   F
 en esta vidamar.


Riff
                      A
e-|-----------------------
B-|-------------------2---
G-|-------------------2---
D-|---------2---------2---
A-|-2-4-5-----5---4-2-0---
E-|-----------------------


(Riff)    C#m
  Mi alma mira hacia el sur
(Riff)    C#m
  soy de allá.

     Bm                       F#m
  Y allá es donde vuelvo, tus ojos un puerto
     G        F#m
  me quiero bajar
     Bm                F#m
  y echar mil raíces y juntos felices
      G      F#m     F
  por este camino viajar.


(Riff)  C#m
  Yo te debo aprender
         C#m
  mucho más.

Solo

e-|------------------------------------------------------------
B-|------------------------------------------------------------
G-|---------------7-----7h9p7-6--------------------------------
D-|-------------7---9-------------9-7---------7-9--------------
A-|-------5-7h9-----------------------10-9-10----------7-9-----
E-|-7-5h7-----------------------------------------10-------9---

e-|-----------------------------------------------
B-|-----------------------------------------------
G-|-4-6-7s6-9-7s11--9-7-14-12--11-9-7-6---7-9-10--
D-|-----------------------------------------------
A-|-2-4-5s4-7-5s9---7-5-12-10--9--7-5-4---5-7-8---
E-|-----------------------------------------------


Riff Bajo y Guitarra

e-|-----------------------------------------------------------|
B-|-----------------------------------------------------------|
G-|-----------------------------------------------------------| (X8)
D-|-------------7-5---------------------10-9-7-----9-10-6-7---|
A-|-----------7-----7-5-7-------------7--------10-------------|
E-|-0-5-6-(6)---------------0-5-6-(6)-------------------------|


Intro

Bm   F#m   G   F#m   F

A           G             F#m         F
  Y en esta noche que te pienso desde lejos
E            Bm          A
  cuento los días que me quedan
  G   F#m Bm
  por pa--sar
  E   E
  sin vos.
Suggest correction
Creating personal tab
Creating personal tab
You can edit any tab online and save it as your Personal.

You can edit, replace or remove any tab part or add personal notes – all changes will be seen only by you.

Personal tabs can be accessed anytime from any device, even offline.
Learn more »
Give kudos to tab author, rate the tab!
1 2 3 4 5
comments
print report bad tab
guest
Wanna post a correction for this tab? Suggest correction