Oops, an error
Loading. Please wait.

Y Eso Vale chords

by Pez
22 views 1 this week
no commentswrite comment
1 2 3 4 5
3 more votes to show rating
add to favorites
×
Save as Personal and add changes to this tab that will be seen only by you. Learn more ›
×
You can save this tab as Personal to edit and correct it or add notes. All changes will be seen only by you. Learn more »
launch autoscroll
font size
0
reset
transpose
0
reset
simplify chords
display chords
guitar tuner
edit
Autoscroll
slow
fast
+/-
esc
set tempo
stop
Strumming
There is no strumming pattern for this song yet. and get +5 IQ
Intro:

A, D, C, G, F, F, E,D, C A

la guitarra toca las nota la y sol durante el riff,
por lo que podria llegar a ser algo asi (aplaudo al que le salga).

------------------------------------------2---2---2---2----
------------------------------------------3---3---3---3-1--
-2-2-2-2--7-0-2-0-2-0-2---2-0-2-0-2-0-2-1-2-0-2-0-2-0-2-0-2
-2-2-2-2--7-2-2---2---2-5-3---3---3---3-2-0-------------2-2
-0-0-0-0--5-3-3---3---3-5-3---3---3---3-2---------------3-0
------------------------3-1---1---1---1-0------------------

VERSO

A   C     F    G#     E
Te escapás dejando
una armonía amarga
yo no creo que estés
saboreando esto

D         C
Mente en blanco
A (riff)
Todo vuelve a empezar
nada queda
todo se evapora por demás

A   C     F    G#     E
te pintás el cuerpo
A   C     F    G#     E
y seguís rodando

D       C
Por la vida
A (riff)
sin que nadie te comprenda
D       C
tus dibujos
A (riff)
solo quieren mostrártelo a vos
y eso vale


D7              G(3p) F#(3P)
Y estás sólo porque hay que estar
y hablás porque alguien quiere escuchar
te ves y te amás

D        C
Mente en blanco
A (riff)
todo vuelve a empezar

nada queda
siempre se evapora por demás


A (riff)

-----------------3---------------
---------2-2-3-5---5-3-2---------
---------2-----------------------
---------2-----------------------
-----0-3-0------------------0-3-0
-0-3--------------------0-3------

D7M: X57670
G(3P): xx5770
F#(3P) X04670

Un abrazo y suerte!
Zr. Zorrino.
Suggest correction
Creating personal tab
Creating personal tab
You can edit any tab online and save it as your Personal.

You can edit, replace or remove any tab part or add personal notes – all changes will be seen only by you.

Personal tabs can be accessed anytime from any device, even offline.
Learn more »
Give kudos to tab author, rate the tab!
1 2 3 4 5
comments
print report bad tab
guest
Wanna post a correction for this tab? Suggest correction