Oops, an error
Loading. Please wait.

Salir Corriendo chords

29 views 1 this week
no commentswrite comment
1 2 3 4 5
3 more votes to show rating
add to favorites
×
Save as Personal and add changes to this tab that will be seen only by you. Learn more ›
×
You can save this tab as Personal to edit and correct it or add notes. All changes will be seen only by you. Learn more »
launch autoscroll
font size
0
reset
transpose
0
reset
simplify chords
display chords
guitar tuner
edit
Autoscroll
slow
fast
+/-
esc
set tempo
stop
Strumming
There is no strumming pattern for this song yet. and get +5 IQ
Intro: [Am -  D] x4

[Am      D            Am            D]
Quería poder meter el sol por su ventana
Y despertarse para no besar su almohada
Quería pelear con el reloj
Para no darse cuenta de qué día es hoy... C#m7 - Cm7 -Bm7

CORO

E             Amaj7                  C#m7             Cm7   Bm7
   Y salir corriendo por la calle buscando una razón para ganar
                E
Unos cuantos centavos y tal vez
      Amaj7                    C#m7               Cm7    Bm7
Una sonrisa de otro bar, unos cigarros pa? fumar, una canción
                     E
Con un pedazo de verdad.

Salió corriendo por un sueño buscando en sus bolsillos un rincón
Para poder guardarlo,
Pendiente de lo que no pude ser y por primera vez
le temblaron sus labios.

[Am        B7     Em]
Y ya no quería correr,
el sol se quería esconder
Y se dio cuenta de que ya no era tan niño
Que no podía tener los ojos tan vacíos
Que el dolor nunca se iba a perder


E                 Amaj7                  C#m7
   Pero salió corriendo hacia el mismo lugar
         Cm7 Bm7                    E
Buscando regalar más flores y más sueños
        Amaj7                       C#m7
Y su guitarra le decía: ¡Dejame en paz!
         Cm7     Bm7                   E
Pero él quería volar sin reservar el vuelo

CORO

E             Amaj7                  C#m7             Cm7   Bm7
   Y salir corriendo por la calle buscando una razón para ganar
                E
Unos cuantos centavos y tal vez
      Amaj7                       C#m7               Cm7    Bm7
Una sonrisa de otro barrio, unos cigarros pa? fumar, una canción
                     E
Con un pedazo de verdad.

Salió corriendo por un sueño buscando en sus bolsillos un rincón
Para poder guardarlo,
Pendiente de lo que no pude ser y por primera vez
No quiso dejar de correr.

Salió corriendo por la calle?

Solo: (Amaj7 - C#m7 - Cm7 - Bm7 - E ) x4

e|-----------------------------------------------|
B|---9hp-9---------------------------------------|
G|----------9----------11p9----------------------|
D|------------11-------------12-11-9-------------|
A|-------------------------------------12--11----|
E|-----------------------------------------------|

e|----------------------------------------|
B|----------------------------------------|
G|----------------------------------------|
D|-------9-11-12-11----9--------9---------|
A|--11-12----------------12-11----11------|
E|-----------------------------------12---|

e|-----------------------------------------------|
B|---9hp-9---------------------------------------|
G|----------9----------11p9----------------------|
D|------------11-------------12-11-9-------------|
A|-------------------------------------12--11----|
E|-----------------------------------------------|

e|--------------------------------------|
B|--------------------------------------|
G|-----------------------------9--------|
D|-------9-11-12-11----9----------------|
A|--11-12----------------12-11----------|
E|--------------------------------------|   (se repite todo el solo)


Final: Amaj7


Tablatura por Raúl Bocanegra

            
            
Suggest correction
Creating personal tab
Creating personal tab
You can edit any tab online and save it as your Personal.

You can edit, replace or remove any tab part or add personal notes – all changes will be seen only by you.

Personal tabs can be accessed anytime from any device, even offline.
Learn more »
Give kudos to tab author, rate the tab!
1 2 3 4 5
comments
print report bad tab
guest
Wanna post a correction for this tab? Suggest correction