Oops, an error
Loading. Please wait.

Anything Tab

by PFR
558 views 1 this week
no commentswrite comment
1 2 3 4 5
please rate
add to favorites
launch autoscroll
font size
0
reset
how to read this tab
guitar tuner
Tab Pro tools
  • play this tab
  • loop segment
  • change instrument
  • show fretboard
  • metronome
×
Best way to learn
"Anything"
Autoscroll
slow
fast
+/-
esc
set tempo
stop
Contributor
Intro
Gtr 1 elec w/ dist and flanger
and Gtr 2 acoustic
----------------------------------------------------------------------------|
----------------------------------------------------------------------------|
----------------------------------------------------------------------------|
-7-7-7--2-2-2-2--3-3-3-3-3-3-3-3--4-4-4-4-4-4-4-4--5-5-5-5-5-5-5-5----------|
-0-0-0--0-0-0-0--0-0-0-0-0-0-0-0--0-0-0-0-0-0-0-0--0-0-0-0-0-0-0-0----------|
----------------------------------------------------------------------------|

Verse
Gtr 1 dist
Gtr 2 clean
(Throughout song, both guitars play chords except Riff 1.  For the
chorus, Gtr 1 plays power chords.  Gtr 1 always dist
except solos.  Flanger only on intro.)
A
Nothing I can say
Asus
Will matter anyway
A7
Just a vain display
Riff 1
With me in the middle

Riff 1
Gtr 1 only
----------------------------------------------------------------------------|
----------------------------------------------------------------------------|
----------------------------------------------------------------------------|
----------------------------------------------------------------------------|
-4--5--7---5---4-7----------------------------------------------------------|
----------------------------------------------------------------------------|

A
No more empty words
Asus
Will anymore be heard
A7
All my rhymes and verbs
Riff 1
Mean very little

         Bm
Like whispers thrown against the wind
D               E          A
Empty Phrases caving in

                       F#m           A
It doesn't mean anything without you
              F#m              C#m
Just a nice melody without you
                Bm       E
Without Your Spirit to sing
C#m                    Bm                    E
Of the hope and the joy that You bring
B                 D             E
Without You it doesn't mean anything

Occasional chorus fill
----------------------------------------------------------------------------|
-5--7--5--------------------------------------------------------------------|
----------------------------------------------------------------------------|
----------------------------------------------------------------------------|
----------------------------------------------------------------------------|
----------------------------------------------------------------------------|

Solo
----------------------------------------------------------------------------|
----------------------------------------------------------------------------|
----------------------------------------------------------------------------|
----------------------------------------------------------------------------|
-0----8--------0--0----9------0--0--0--10--9--7--9-7--5--4------------------|
----------------------------------------------------------------------------|

-------14-------------------------------------------------------------------|
-14-14----14-12v-10-12------------------------------------------------------|
-----------------------11vvvv\9/11\9----------------------------------------|
----------------------------------------------------------------------------|
----------------------------------------------------------------------------|
----------------------------------------------------------------------------|


---------14-----------------------------------------------------------------|
-14--14------14--12v----12h14h15vvvv--\-------------------------------------|
----------------------------------------------------------------------------|
----------------------------------------------------------------------------|
----------------------------------------------------------------------------|
----------------------------------------------------------------------------|

A
Nothing I'll ever do
Asus
Could ever hold a candle to
A7
The love displayed when You
Riff 1
Said You forgave me

A
And what I know of love
Asus
Is that I'm not deserving of
A7
One You called Your Son
Riff 1
One sent to save me

        Bm
Like love holding the hand of hate
        D              E                A
You choose to love me anyway

                  F#m              A
It doesn't mean anything without you
                F#m               C#m
Just words that I say without You
                B       E
Without Your Spirit to sing
C#m                     B          E
Of this change of the heart that You bring
B                 D             E
Without You it doesn't mean anything

Ending:
bass plays C-A-E-G (eighth notes)
guitar plays outro solo

Outro
----------------------------------------------------------------------------|
------------13--12----13--10------------------------------------------------|
-----9--12----------------------9/12vvvv--14------12------------------------|
-10-------------------------------------------14----------------------------|
----------------------------------------------------------------------------|
----------------------------------------------------------------------------|

----------------------------------------------------------------------------|
------------13--12----13--10----12--12vvvv----------------------------------|
-----9--12------------------------------------------------------------------|
-10-------------------------------------------------------------------------|
----------------------------------------------------------------------------|
----------------------------------------------------------------------------|

Chords
 A      Asus A7susBm   D    E    C#m    F#m
-0----0----2----2----2----0----4----2---------------------------------------|
-2----2----2----3----3----0----5----2---------------------------------------|
-2----1----0----4----2----1----6----2---------------------------------------|
-2----2----2----4----0----2----6----4---------------------------------------|
-0----0----0----2---------2----4----4---------------------------------------|
--------------------------0---------2---------------------------------------|
comments
We did not receive enough feedback on this tab! Please rate:
print report bad tab
1 2 3 4 5
I want to post or [tab]
guest
You may want to rate the tab now too:
select rating
Please do not post tabs as comments. Select "correction" instead!