Oops, an error
Loading. Please wait.

Do You Want To Know Love Tab

by PFR
502 views 1 this week
no commentswrite comment
1 2 3 4 5
please rate
add to favorites
launch autoscroll
font size
0
reset
how to read this tab
guitar tuner
Autoscroll
slow
fast
+/-
esc
set tempo
stop
Help us to improve Ultimate-Guitar.com Take our survey!
×
Author
Difficulty
/=slide

Lead Guitar
e---------------------------------------------------------------------|
B---------------------------------------------------------------------|
G----------------------------------------------------------------3/4--|
D-3-3-3-3-5----------------------1-1-1-1-1 -------------7 -------1/2--|
A ---------3-3-5-5---5-5-5-5-4-3------------1-1-3-3-5-5-5-5-5-5-------|
E------------------3-3-3-3-3-2-1--------------------------------------|

2nd Guitar
e------------------------------------------------------------------------------------|
B------------------------------------------------------------------------------------|
G------------------------------------------------------------------------------------|
D-3-3-3-3------------------------------------------------------1-2-3-3-3-3-----------|
A---------3-3-5-5--------------------------1-1/3-3/5-5-5-5-5-5-------------3-3-5-5---|
E -----------------4-4-4-4-4-3-2-0-0-0-0-0-------------------------------------------|

Rythum Guitar (Chords)
[F] Do you feel like you [C] wake up ev'ry day
[G] to watch your life [Gb]slide [F]right [Eb]by?
Is it [Bb] slipping [C] away?[D][Eb][E]
[F]Does the question [C]call to your mind?
Suggest correction
Give kudos to tab author, rate the tab!
1 2 3 4 5
comments
print report bad tab
guest
You may want to rate the tab now too:
select rating
Please do not post tabs as comments. Select "correction" instead!