Oops, an error
Loading. Please wait.

Ikaros bass

by Pg Lost
28 views 3 this week
no commentswrite comment
1 2 3 4 5
3 more votes to show rating
add to favorites
×
Save as Personal and add changes to this tab that will be seen only by you. Learn more ›
×
You can save this tab as Personal to edit and correct it or add notes. All changes will be seen only by you. Learn more »
launch autoscroll
font size
0
reset
guitar tuner
edit
Autoscroll
slow
fast
+/-
esc
set tempo
stop
Time Signature: 3/4

[Intro]
                                            1  2 3
g|--------|                               |--------|-------|
d|--------|                               |--------|-------|
a|5-------| --(Hold for 10 more measures) |/8------|\3-----| --(Hold 3+ measures)
D|--------|                               |--------|-------|
______________________________________________________
g|--------|---|---|------|-----|                      |
d|--------|---|---|------|-----|                      |x8
a|5-------|---|---|/8----|\3---| --(Hold 3+ measures)           
D|--------|---|---|------|-----| 

[Verse 1]         ________________________________________________________________________________________
                  ______________                    1______________   2_______________ _________________  |
                  1 + 2 + 3 +   |     1  + 2 + 3 +   1 + 2 + 3 +   |                  |                   |
g|---|           |------------| |    |--------------|------------| |   |------------| |   |------------|  |x2
d|---|           |------------| |x2  |--------------|------------| |x3 |------------| |x2 |------------|   
a|5--| --Hold 3+ |5-5-5-5-5-5-|      |5-/8-8-8-8-8\-|3-3-3-3-3-3-|     |3-3-3-3-3-3-|     |3-3-3-----3-|
D|---|           |------------|      |--------------|------------|     |------------|     |------1-3---|

  __________________________________________________________________________
                                                        _______________     |
  1 + 2 + 3 +                            1  + 2 + 3 +   1 + 2 + 3 +    |    |
g|------------|------------|------------|--------------|------------|  |    |x2
d|------------|------------|------------|--------------|------------|  |x3  
a|5-5-5-5-5-5-|5-5-5-5-5-5-|3-5-5-5-5-5-|5-/8-8-8-8-8\-|3-3-3-3-3-3-|
D|------------|------------|------------|--------------|------------|

[Refrain]                                                  
  1 + 2 + 3 +                                                            
g|------------|------------|------------------|------------|
d|------------|------------|------------------|------------|
a|1-1-1-1-1-1-|1-1 1-1-1-1/|10-10-10-10-10-10\|3-3-3-3-3-3/|
D|------------|------------|------------------|------------|

[Verse 2]   
 ____________________________________________________________________________________________________
                                             1______________    2______________ __________________   |
  1 + 2 + 3 +     1 + 2 + 3 +  1  + 2 + 3 +                 |                  |    1 + 2 + 3 +      |
g|-------------| |------------|--------------|------------| |   |------------| |   |0-2-2-------|    |x2
d|------------*| |------------|--------------|------------| |x3 |------------| |x2 |------2-3---|   
a|5-5-5-5-5-5-*| |3-5-5-5-5-5-|5-/8-8-8-8-8\-|3-3-3-3-3-3-|     |3-3-3-3-3-3-|     |------------|
D|-------------| |------------|--------------|------------|     |------------|     |------------|

 ___________________________________________________________________________
                                                        _______________     |
  1 + 2 + 3 +                            1  + 2 + 3 +   1 + 2 + 3 +    |    |
g|------------|------------|------------|--------------|------------|  |    |x2
d|------------|------------|------------|--------------|------------|  |x3  
a|5-5-5-5-5-5-|5-5-5-5-5-5-|3-5-5-5-5-5-|5-/8-8-8-8-8\-|3-3-3-3-3-3-|
D|------------|------------|------------|--------------|------------|

[Refrain]                                                  
  1 + 2 + 3 +                                                            
g|------------|------------|------------------|------------|  
d|------------|------------|------------------|------------|
a|1-1-1-1-1-1-|1-1 1-1-1-1/|10-10-10-10-10-10\|3-3-3-3-3-3/|
D|------------|------------|------------------|------------|

[Pre-Chorus]
g|------------|   
d|------------|  
a|5-5-5-5-5-5-| x3 
D|------------|     

[Chorus]
__________________________________________________________
g|------------|------------|------------|------------|    |
d|------------|------------|------------|------------|    |
a|1-1-1-1-1-1-|5-5-5-5-5-5-|1-1-1-1-1-1-|8-8-8-8-8-8-|    |
D|------------|------------|------------|------------|    |
                                                          |
g|------------|------------|------------|------------|    |
d|------------|------------|------------|------------|    |x5
a|1-1-1-1-1-1-|5-5-5-5-5-5-|3-3-3-3-3-3-|3-3-3-3-3-3-|
D|------------|------------|------------|------------|

[Interlude]
_______________________________________________________
g|--------|---|---|------|------|                      |
d|--------|---|---|------|------|                      |x5
a|5-------|---|---|/8----|\3----| --(Hold 3+ measures)           
D|--------|---|---|------|------|                      

[Bridge]
  1       1        1     1 2 3 
g|-------|-------|------|-----|-----|------|--------|------|
d|-------|-------|------|-----|-----|------|--------|------|
a|1------|-------|/5----|--3--|1----|------|/7------|------|
D|-------|0------|------|-----|-----|0-----|--------|------|

[Chorus]
__________________________________________________________
g|------------|------------|------------|------------|    |
d|------------|------------|------------|------------|    |
a|1-1-1-1-1-1-|5-5-5-5-5-5-|1-1-1-1-1-1-|8-8-8-8-8-8-|    |
D|------------|------------|------------|------------|    |
                                                          |
g|------------|------------|------------|------------|    |
d|------------|------------|------------|------------|    |x6
a|1-1-1-1-1-1-|5-5-5-5-5-5-|3-3-3-3-3-3-|3-3-3-3-3-3-|
D|------------|------------|------------|------------|

[Outro]
_________________________________________________________________________________
                       1________________________     2________________________   |
  1 + 2  3   1 + 2  3  1 + 2 + 3   1 + 2 + 3    |    1 + 2 + 3   1 + 2 + 3    |  |
g|----------|---------|-----------|-----------| |   |-----------|-----------| |  |
d|----------|0-0-0----|-----------|-----------| |   |-----------|-----------| |  |x2
a|----------|---------|-----------|-----------| |   |1-1--------|-----------| |
D|0-0-0-----|---------|5-5---8-8--|3-3---5-5--|     |------3-3--|5-5---3-3--|

__________________________________________________________________________________
                       1________________________     2_________________________   |
  1 + 2  3   1 + 2  3  1 + 2 + 3   1 + 2 + 3    |    1 + 2 + 3   1 + 2 + 3 +   |  |
g|----------|---------|-----------|-----------| |   |-----------|------------| |  |
d|----------|0-0-0----|-----------|-----------| |   |-----------|------------| |  |x2
a|----------|---------|-----------|-----------| |   |1-1--------|------------| |
D|0-0-0-----|---------|5-5---8-8--|3-3---5-5--|     |------3-3--|5-5---3-5-3-|

[Ending]
g|-----------------------|
d|0----------------------|
a|-----------------------|
D|0----------------------|



************************************

| /  Slide up
| \  Slide down
| x  Dead note
| *  Natural harmonic
|    
| (Hold for 
| +  
| Hold 
| ______________________________________________________ 
| more measures) 

************************************
Suggest correction
Creating personal tab
Creating personal tab
You can edit any tab online and save it as your Personal.

You can edit, replace or remove any tab part or add personal notes – all changes will be seen only by you.

Personal tabs can be accessed anytime from any device, even offline.
Learn more »
Give kudos to tab author, rate the tab!
1 2 3 4 5
comments
print report bad tab
guest
You may want to rate the tab now too:
select rating
Wanna post a correction for this tab? Suggest correction