Oops, an error
Loading. Please wait.

When Im Small Bass

12,349 views 24 this week
2 commentsread comments
1 2 3 4 5
x 8
add to favorites
launch autoscroll
font size
0
reset
guitar tuner
Autoscroll
slow
fast
+/-
esc
set tempo
stop
Author
Artist: Phantogram
Song: When I'm Small
E-mail: trevor.smith16@hotmail.com
Tuning: Standard

[Bass doesn't come in until 0:18]
G|----------------------------------------------------------------------------|
D|----------------------------------------------------------------------------|
A|----------------------------------------------------------------------------|
E|----3----3-3--3-3----3----3-3--3-3----3----3-3--3-3----3--1--1--1-----------|

G|----------------------------------------------------------------------------|
D|----------------------------------------------------------------------------|
A|----------------------------------------------------------------------------|
E|----6----6-6--6-6----6----6-6--6-6----6----6-6--6-6----6--1--1--3-----------|

[Repeat this riff until 1:30]

[Bass stops playing]

[Bass comes back in at 1:57]
G|----------------------------------------------------------------------------|
D|----------------------------------------------------------------------------|
A|----------------------------------------------------------------------------|
E|----3----3-3--3-3----3----3-3--3-3----3----3-3--3-3----3--1--1--1-----------|

G|----------------------------------------------------------------------------|
D|----------------------------------------------------------------------------|
A|----------------------------------------------------------------------------|
E|----6----6-6--6-6----6----6-6--6-6----6----6-6--6-6----6--1--1--3-----------|

[Repeat this riff until 2:43]

[Bass stops playing again]

[Bass comes back in at 3:19]
G|----------------------------------------------------------------------------|
D|----------------------------------------------------------------------------|
A|----------------------------------------------------------------------------|
E|----3----3-3--3-3----3----3-3--3-3----3----3-3--3-3----3--1--1--1-----------|

G|----------------------------------------------------------------------------|
D|----------------------------------------------------------------------------|
A|----------------------------------------------------------------------------|
E|----6----6-6--6-6----6----6-6--6-6----6----6-6--6-6----6--1--1--3-----------|

[Repeat this riff until 4:41]

[Bass stops playing for the last time]
Suggest correction
comments
print report bad tab
2 comments total.
0 reply
astratoidi 10 Jan 03, 2014 12:23 PM

wow so much hard. much hard.. very tab. amaze

0 reply
Pale_Pilgrim 702 Sep 04, 2014 08:01 PM

Accurate for the remix, but not fitting for the original, which doesn't use the same "bass" line - in fact, it's a 6 string guitar with an octave pedal. The rhythm is similar but different. I may take a stab at it sometime.

guest
You may want to rate the tab now too:
select rating
Wanna post a correction for this tab? Suggest correction