Oops, an error
Loading. Please wait.

When Im Small tab

version 3
version 3

Whole song

701 views 1 this week
no commentswrite comment
1 2 3 4 5
2 more votes to show rating
add to favorites
×
Save as Personal and add changes to this tab that will be seen only by you. Learn more ›
×
You can save this tab as Personal to edit and correct it or add notes. All changes will be seen only by you. Learn more »
launch autoscroll
font size
0
reset
how to read this tab
guitar tuner
edit
Autoscroll
slow
fast
+/-
esc
set tempo
stop
Author
Difficulty
-------------------------------------------------------------------------------
                          WHEN I'M SMALL - Phantogram
-------------------------------------------------------------------------------
Tabbed by: Xamio
Tuning: Standard


RIFF 1 (Main riff):
e|--------------------------------|   |--------------------------------|
B|--------------------------------|   |--------------------------------|  Play these both one 
G|--------------------------------|   |--------------------------------|  after the other.
D|--------------------------------|   |--------------------------------|
A|--------------------------------|   |--------------------------------|
E|3-3-x3-x3-3-x3-x3-3-x3-x3-3-1-1-|   |6-6-x6-x6-6-x6-x6-6-x6-x6-6-1-1-|
Pattern 1                             Pattern 2

Variations of Pattern 2 found throughout the song (listen closely).
e|--------------------------------|   |--------------------------------|
B|--------------------------------|   |--------------------------------|
G|--------------------------------|   |--------------------------------|
D|--------------------------------|   |--------------------------------|
A|---------------------8----------|   |--------------------------5-3---|
E|6-6-x6-x6-6-x6-x6-6-x--x6-6-x8-x|   |6-6-x6-x6-6-x6-x6-6-x6-x6-----6-|

Mute the string on each X with your finger. Listen to the song to get the rhythm right.


RIFF 2:
e|-----------------------------------------------------|
B|-----------------------------------------------------|
G|------12--------12-----------3----------12-------12--|
D|-----------------------------------------------------|
A|----13-------13------------5---------13--------13----|
E|--11-------11------------3---------11--------11------|


RIFF 3 (Synth):
e|------------------------------------------------------|
B|------------------------------------------------------|
G|-----------10-----------10-----------10-----------10--|
D|-----10-12--------10-12--------10-12--------10-12-----|
A|--10-----------10-----------10-----------10-----------|
E|------------------------------------------------------|

e|------------------------------------------------------|
B|-----------10------------------------10---------------|
G|--------10-----------10-12--------10-----------10-12--|
D|--10-12--------10-12--------10-12--------10-12--------|
A|------------------------------------------------------|
E|------------------------------------------------------|


RIFF 4 (Synth):
e|---------------|       |---------------|   
B|---------------| (x2)  |---------------|   (x2)
G|--------12-15--|       |-----------10--|
D|--13-15--------|       |-----10-12-----|
A|---------------|       |--10-----------|
E|---------------|       |---------------|


RIFF 5 (Tremolo):
e|---------------------------------------|
B|---------------------------------------|
G|-----/15----14----12/19-------14/15----|  (x2)
D|---------------------------------------|
A|---------------------------------------|
E|---------------------------------------|

e|-----/18----17----15/22-------17/18----|  (x2)
B|---------------------------------------|
G|---------------------------------------|
D|---------------------------------------|
A|---------------------------------------|
E|---------------------------------------|


Lyrics:

intro - RIFF 1 (RIFF 1 - throughout the whole song almost)

Lucy's underground
She's got a mouth to feed
Am I underground
Or am I in between

Lucy's underground
She's got a mouth to feed
Am I underground
Or am I in too deep

RIFF 2
Show me love
Who's got your hand on the button of
Showin' love
You've got your hand on the button of

RIFF 3
Ooh-ooh...

RIFF 3
Lucy's underground
She's never coming back
Am I still alive
Or has the life gone bad

Take me underground
Take me all the way
And bring me to the fire
Throw me into the flames

RIFF 4
So show me love
Who's got your hand on the button of
Showin' love
You've got your hand on the button of

I would rather die
I would rather die
Than to be with you

outro - RIFF 5
-------------------------------------------------------------------------------

            
            
Suggest correction
Creating personal tab
Creating personal tab
You can edit any tab online and save it as your Personal.

You can edit, replace or remove any tab part or add personal notes – all changes will be seen only by you.

Personal tabs can be accessed anytime from any device, even offline.
Learn more »
Give kudos to tab author, rate the tab!
1 2 3 4 5
comments
print report bad tab
guest
You may want to rate the tab now too:
select rating
Wanna post a correction for this tab? Suggest correction