Oops, an error
Loading. Please wait.

Badd Business Bass Tab

562 views 1 this week
1 commentread comment
1 2 3 4 5
please rate
add to favorites
launch autoscroll
font size
0
reset
guitar tuner
Tab Pro tools
  • play this tab
  • loop segment
  • change instrument
  • show fretboard
  • metronome
×
Best way to learn
"Badd Business"
Autoscroll
slow
fast
+/-
esc
set tempo
stop
Contributor
Difficulty
I've been looking for a tab for this song cause there's some hott bass in it,
but i haven't been able to find it so i tabbed it out myself. Enjoy.

Intro/1st Verse JUST..BADD..BUS...INESS!!
G|--------------------------------|x2G|------------------------------------|
D|-----7-7--------------10-10-7---|D|------------77881010---5577--10--10---|
A|5585-----8-8---7-10-7---------7-|A|---55668888----------77---------------|
E|--------------------------------|E|-66-----------------------------------|

Verse Variation: (played right before chorus)
G|------------------7---8---10---------------------------------------------|
D|-7-7-10-9-7-----------------------7-7-8-8-10-10-------5--5--7--7--10--10-|
A|-5585-8-8-7-10-7-7-5-6---8----8-8---------------7--7---------------------|
E|---------------6-6-------------------------------------------------------|

Chorus (im pretty sure this is it)
G|-----10-10-----10-10-------------8-8-------------------------------------|
D|-----10-10-------------10-10-------------8-8-------5--5--7--7--10--10----|
A|-8-8-------8-8---------------6-6-------------7--7------------------------|
E|-8-8---------------8-8---------------6-6---------------------------------|

After 1st Chorus Riff/Bridge
G|--------------------------------|x2G|------------------------------------|
D|-------5--6--7------------------|D|-88888--------------5--5--7--7--10--10|
A|-5-8-5--------------------------|A|--------88-88-87-7--------------------|
E|----------------5-8-5--8---5----|E|--------------------------------------|

2nd Verse (played once only, then back to the 1st verse riff)
G|----------------------------|x2G|----------------------------------------|
D|-------7--------------10----|D|--------77881010-----5--5--7--7--10-10----|
A|-5--8-----8--------7--------|A|--56888----------77-----------------------|
E|-------------5--8-----------|E|-6----------------------------------------|

After Last Chorus 
G|------------------------------|x4
D|--------5--5--7--7--10--10----|
A|--7--7------------------------|
E|------------------------------|
comments
We did not receive enough feedback on this tab! Please rate:
print report bad tab
1 2 3 4 5
1 comment total.
0 reply
Pacman99 wrote on February 22 2010, 09:07 am

Yes, it's ok but here and there a bit confusing ....

I want to post or [tab]
guest
You may want to rate the tab now too:
select rating
Please do not post tabs as comments. Select "correction" instead!