Oops, an error
Loading. Please wait.
We have Chord Pro version of California.
It's the closest thing you can get to the original song and it has interactive parts. Check out the tab »
×
34,668 views 9 this week
7 commentsread comments
1 2 3 4 5
x 13
add to favorites
launch autoscroll
font size
0
reset
how to read this tab
guitar tuner
Autoscroll
slow
fast
+/-
esc
set tempo
stop
Author
CALIFORNIA by: Phantom Planet

Tab by: Aaron Meredith & Co.


~ = let ring
/ = slide up
\ = slide down



Intro: (clean) *Piano tabbed for guitar*
e|---7-9-7-9----7-9-7-9----7-9-7-9-11-7----------------------------|
B|--9----------9----------9--------------9-77\55-7-9--9-77\55-7-9~-|
G|-----------------------------------------------------------------|
D|-----------------------------------------------------------------|
A|-----------------------------------------------------------------|
E|-----------------------------------------------------------------|


Verses:
e|-4--4--4-4-44-4-4---0-00--0-0-0-00--0-0-000-00-0-00-
B|-5--5--5-5-55-5-5---2-22--0-0-0-00--2-2-200-00-0-00-
G|-6--6--6-6-66-6-6---2-22--1-1-1-11--2-2-211-11-1-11- 
D|-6--6--6-6-66-6-6---2-22--2-2-2-22--2-2-222-22-2-22-    
A|-4--4--4-4-44-4-4p0-0-00--2-2-2-22--0-0-022-22-2-22-
E|--------------------------0-0-0-00-------00-00-0-00-

Ending 1:                Ending 2:
e --0-0-0000-0000----|   --0-0-000--00-0-00--0-0-0-0-0-0-0-0---|
B --2-2-2000-0000----|   --2-2-200--00-0-00--0-0-0-0-0-0-0-0---|
G --2-2-2111-1111----|   --2-2-211--11-1-11--2-2-2-2-2-2-2-2---|
D --2-2-2222-2222----|   --2-2-222--22-2-22--2-2-2-2-2-2-2-2---|
A --0-0-0222-2222----|   --0-0-022--22-2-22--0-0-0-0-0-0-0-0---|
E -------000-0000----|   -------00--00-0-00--------------------|



Chorus: 
e|--------------------------------------|
B|------------0-----------------0-------|
G|---1--------2--------1--------2-------|
D|---2-(x8)---2-(x8)---2-(x8)---2-(x8)--|
A|---2--------0--------2--------0-------|
E|---0-----------------0----------------|



REPEAT VERSE:


REPEAT CHORUS: (x2)


Solo 1: (clean) 
e|---7-9-7-9----7-9-7-9----7-9-7-9-11-7-----------------------------|
B|--9----------9----------9-----------------------------------------|
G|------------------------------------------------------------------|
D|---------------------------------------6-44\22-4-6--6-44\22-4-/6~-|
A|------------------------------------------------------------------|
E|------------------------------------------------------------------|

e|---7-9-7-9----7-9-7-9----7-9-7-9-11-7-----------------------------|
B|--9----------9----------9---------------------------------------9-|
G|------------------------------------------------------------------|
D|---------------------------------------6-44\22-4-6--6-44-22---/9~-|
A|------------------------------------------------------------------|
E|------------------------------------------------------------------|



Solo 2: (clean)                  "California...    ...Here we come!"
e|--0-0-0-0--0-0-0-0-0-0-0-0-0-0-0-0------0---0-0-0-0-0-0-0-0-0-0-0-|
B|-0-0-0-0-10-9-7-5-9-7-5-4-2-4-5-7--0-0-0-0-2-4-5-7-2-4-5-7-2-4--5-|
G|----------------------------------4-2-0---------------------------|
D|------------------------------------------------------------------|
A|------------------------------------------------------------------|
E|------------------------------------------------------------------|

Solo 2 rhythm: (play softly)
e|-0---0------------0---0---0---0------0-------0-------0-------|
B|-0---0------------0---0---0---0------0-------0-------0-------|
G|-1---1------------2---2---2---2------1-(x8)--3-(x8)--6-(x14)-|
D|-2---2------------2---2---2---2------2-------4-------7-------|
A|-2---2---2---2----0-0-0-0-0-0-0-0----2-------4-------7-------|
E|-0-0-0-0-0-0-0-0---------------------0-------2-------5-------|
                                                                                             
(continue strumming style)


REPEAT CHORUS:  (x2)


End with:
e|---0-------0-------0-------|----4~---|
B|---0-------0-------0-------|----5~---|
G|---1-(x8)--3-(x8)--6-(x16)-|----6~---|
D|---2-------4-------7-------|----6~---|
A|---2-------4-------7-------|----4~---|
E|---0-------2-------5-------|---------|
Suggest correction
comments
print report bad tab
7 comments total. Showing first comments.
0 reply
nofx_2525 1,493 Aug 26, 2005 08:00 PM

PHANTOM PLANET ALL THE WAY!!!!!!!!!! great tab

0 reply
adski 20 Jan 25, 2006 02:14 AM

imense tab my friend!!! excellent work!!! *****

0 reply
GNRfan54 10 May 03, 2007 04:11 PM

what is the strum pattern?

guest
You may want to rate the tab now too:
select rating
Wanna post a correction for this tab? Suggest correction