Oops, an error
Loading. Please wait.

Do The Panic bass

4,953 views 1 this week
no commentswrite comment
1 2 3 4 5
x 3
add to favorites
×
Save as Personal and add changes to this tab that will be seen only by you. Learn more ›
×
You can save this tab as Personal to edit and correct it or add notes. All changes will be seen only by you. Learn more »
launch autoscroll
font size
0
reset
guitar tuner
edit
Autoscroll
slow
fast
+/-
esc
set tempo
stop
Author
Difficulty
Do the Panic by Phantom Planet


great bass player, I'm surprised that no one has tabbed any of the songs off the new 
but here you go, o yeah the bass is kinda hard to hear but these are all the right notes!!!!

Intro  - keep playing the riff until the verse

--------------------------|
--------------------------|
--------------22222-------|
-5-5-5--00-0--------------|

ALT Riff - He Just plays this every now and then, you dont have to play it i guess

--------------------------|
--------------------------|
--------------2h4p2-------|
-5-5-5--00-0--------------|

Verse -0:21- muted notes make it sound better

---------------------------------------|
----22-1~------------------------------|
----------4-x-44-2~--------------------|
-00-----------------5-x-55-4--2-x-44-2-|      x2

------------------------------------------|
------------------------------------------|
----4-2------------6-4-------7~~~~--------|
-00-----5-4-----22-----7-5----------------|


*intro riff*


Chorus - 0:53

---------------------------------|
---------------------------------|
------------4-7-----6-9----------|
-0-2-4----5-------7------0-000-0-|  x4


*intro riff*


Verse -:1:15 - this time with a cool run at the end of the verse(you will still be 
the run while the guitar starts to play the intro riff)

---------------------------------------|
----22-1~------------------------------|
----------4-x-44-2~--------------------|
-00-----------------5-x-55-4--2-x-44-2-|      x2

------------------------------------------|
------------------------------------------|
----4-2------------6-4-------7~~~6~~4~----|
-00-----5-4-----22-----7-5-------------7~-|


*intro riff - 1:41*


Chorus - 1:48

---------------------------------|
---------------------------------|
------------4-7-----6-9----------|
-0-2-4----5-------7------0-000-0-|  x4


Bridge - 2:02 - the ending of the bridge i couldnt really hear but i think thats it

--------------------------------------------------------|
------------222-1---------------------------------------|
------------------4-2----------4-2-------------6-4------|
-5555-5-4-2------------------00----5-4------22-----7-5--|


-----------------------------------------------------------------------|
-------------------------------------------2-1-------------------------|
----------------------------------------2x-----2--4-444444444444444444-|
-55555555--44444444-222222222-00000000---------------------------------|


*intro riff*

Chorus - 2:41

---------------------------------|
---------------------------------|
------------4-7-----6-9----------|
-0-2-4----5-------7------0-000-0-|  x7


*intro riff for outro*
Suggest correction
Creating personal tab
Creating personal tab
You can edit any tab online and save it as your Personal.

You can edit, replace or remove any tab part or add personal notes – all changes will be seen only by you.

Personal tabs can be accessed anytime from any device, even offline.
Learn more »
Give kudos to tab author, rate the tab!
1 2 3 4 5
comments
print report bad tab
guest
You may want to rate the tab now too:
select rating
Wanna post a correction for this tab? Suggest correction