Oops, an error
Loading. Please wait.

Do The Panic chords

9,127 views 6 this week
4 commentsread comments
1 2 3 4 5
x 6
add to favorites
×
Save as Personal and add changes to this tab that will be seen only by you. Learn more ›
×
You can save this tab as Personal to edit and correct it or add notes. All changes will be seen only by you. Learn more »
launch autoscroll
font size
0
reset
transpose
0
reset
display chords
guitar tuner
edit
Autoscroll
slow
fast
+/-
esc
set tempo
stop
Author
Strumming
There is no strumming pattern for this song yet. and get +5 IQ
Intro (copied from another tab)
e|----------------------------------------------|
b|----------------------------------------------|
g|----------------------------------------------|
d|----6---4---2-----6---6---6---4---6---4-------|
a|----0---0---0-----2---2---2---2---2---2-------|
e|----------------------------------------------|

e|-------------------------------------|
b|-------------------------------------|
g|-------------------------------------|
d|----6---4---2-----6---6---6---4------|
a|----0---0---0-----2---2---2---2------|
e|-------------------------------------|

Verse:

E
Guess we're all in trouble, huh?
C#
Black clouds are upon us
A                                   B
It's doomsday on the other side of town.
      E
That boy survived a severed head
      C#
When most would just give up for dead,
   A                            B
So I said: "Al B. don't get so upset."
    A                              B
We all get scared of sticking our own necks

It's expected!

E            A
Come on come on
              B       E
It's time to lose control!
E             A
Come on come on
               B  E      
Turn off your radio!
E            A
Come on come on
              B       E
You're gonna feel alright!
E             A
Come on come on
              B         E
Let's do the panic tonight!


and that repeats throughout the song

            
            
Suggest correction
Creating personal tab
Creating personal tab
You can edit any tab online and save it as your Personal.

You can edit, replace or remove any tab part or add personal notes – all changes will be seen only by you.

Personal tabs can be accessed anytime from any device, even offline.
Learn more »
comments
print report bad tab
4 comments total. Showing first comments.
+3 reply
ducktree 126 Sep 11, 2010 01:11 PM

C# should be C#m

0 reply
I_pokebadgers 10 Jun 01, 2013 10:33 AM

I've found the intro sounds fine without having to use a finger on the second threat

0 reply
Hampurilias 39 Sep 21, 2015 09:50 AM

e|----------------------------------------------|
b|----------------------------------------------|
g|----------------------------------------------|
d|----6---4---2-----6---6---6---4---6---4-------|
a|----0---0---0---------------------------------|
e|------------------7---7---7---7---7---7-------|

Much easier

guest
You may want to rate the tab now too:
select rating
Wanna post a correction for this tab? Suggest correction