Oops, an error
Loading. Please wait.

Guest tab

version 1
version 1

Whole song

Interactive

2,826 views 9 this week
2 commentsread comments
1 2 3 4 5
2 more votes to show rating
add to favorites
×
Save as Personal and add changes to this tab that will be seen only by you. Learn more ›
×
You can save this tab as Personal to edit and correct it or add notes. All changes will be seen only by you. Learn more »
launch autoscroll
font size
0
reset
how to read this tab
guitar tuner
edit
Autoscroll
slow
fast
+/-
esc
set tempo
stop
-------------------------------------------------------------------------------
                             THE GUEST - Phantom Planet
-------------------------------------------------------------------------------
Tabbed by: Tony V.
Email: tsvaldez@cox.net

Tuning: Standard


So, hi there. I'm Tony and this is my first tab submition. Don't worry, I've
got a damn good ear. I've thought about submitting a few tabs before for other
songs, but I'm usually just too lazy. Anyway I've got the complete intro down
and the rhythm guitar for the rest of the song. I haven't done the lead guitar
yet, but I'll probably finish and update that soon. Enjoy!

P.S.: Just listen to it for the timing and strum pattern.

INTRO
Guitar 1
e|-------------------|
B|----14-------------|
G|----------14----14-|
D|-------14----12----|
A|-12----------------|
E|-------------------|

On 3rd time, add this:

Guitar 2
e|-9\6-4\0---------------|
B|---------3-----3-2-----|
G|-------------2-----2---|
D|-----------4---------2-| \
A|-----------------------|  \
E|-----------------------|   \
                               Repeat these bars once as rhythm comes in
e|-9\6-4\0---------------|   /
B|---------3-----3-2-----|  /
G|-------------2---2-----| /
D|-----------4-----2-----|
A|-----------------------|
E|-----------------------|

Guitar 1 (Main Rhythm)

e|------0000-----------|
B|-2222-0000-3333-2222-|
G|-2222-1111-2222-2222-|
D|-2222-2222-0000-2222-|
A|-0000-2222-0000-0000-|   2x
E|------0000-----------|

Verse 1
(same as main rhythm, plus palm-muting)
e|------0000-----------|
B|-2222-0000-3333-2222-|
G|-2222-1111-2222-2222-|
D|-2222-2222-0000-2222-|
A|-0000-2222-0000-0000-|   4x
E|------0000-----------|
p.m.. .................

Chorus
e|-0000-2222----------|
B|-0000-2222-33333333-|
G|-1111-2222-22222222-|
D|-2222-4444-00000000-|
A|-2222-4444-00000000-|    4x
E|-0000-2222----------|

Main Rhythm
e|------0000-----------|
B|-2222-0000-3333-2222-|
G|-2222-1111-2222-2222-|
D|-2222-2222-0000-2222-|
A|-0000-2222-0000-0000-|   2x
E|------0000-----------|

Verse 2
e|------0000-----------|
B|-2222-0000-3333-2222-|
G|-2222-1111-2222-2222-|
D|-2222-2222-0000-2222-|
A|-0000-2222-0000-0000-|   2x
E|------0000-----------|
p.m....................

Chorus
e|-0000-2222----------|
B|-0000-2222-33333333-|
G|-1111-2222-22222222-|
D|-2222-4444-00000000-|
A|-2222-4444-00000000-|    4x
E|-0000-2222----------|

Main Rhythm
e|------0000-----------|
B|-2222-0000-3333-2222-|
G|-2222-1111-2222-2222-|
D|-2222-2222-0000-2222-|
A|-0000-2222-0000-0000-|   4x
E|------0000-----------|

Chorus
e|-0000-2222----------|
B|-0000-2222-33333333-|
G|-1111-2222-22222222-|
D|-2222-4444-00000000-|
A|-2222-4444-00000000-|    2x
E|-0000-2222----------|
p.m...................

Chorus
e|-0000-2222----------|
B|-0000-2222-33333333-|
G|-1111-2222-22222222-|
D|-2222-4444-00000000-|
A|-2222-4444-00000000-|
E|-0000-2222----------|
p.m.........

Chorus
e|-0000-2222----------|
B|-0000-2222-33333333-|
G|-1111-2222-22222222-|
D|-2222-4444-00000000-|
A|-2222-4444-00000000-|
E|-0000-2222----------|

Everything stops but Guitar 1:
e|-------------------|
B|----14-------------|
G|----------14-------| let last note ring...
D|-------14----------|
A|-12----------------|
E|-------------------|

THE END!

| /  slide up
| \  slide down
| h  hammer-on
| p  pull-off
| ~  vibrato
| +  harmonic
| x  Mute note
===============================================================================

            
            
Suggest correction
Creating personal tab
Creating personal tab
You can edit any tab online and save it as your Personal.

You can edit, replace or remove any tab part or add personal notes – all changes will be seen only by you.

Personal tabs can be accessed anytime from any device, even offline.
Learn more »
Give kudos to tab author, rate the tab!
1 2 3 4 5
comments
print report bad tab
2 comments total.
0 reply
Phantomfan123 10 Jan 27, 2005 07:00 PM

The Intro is harmonics.
h-harmonic
guitar 1
e-------------------------------
b-------------------------------
g-------------------------------
d---------------------12h---7h--
a----12h---9h---7h---5h---------
E-------------------------------

guitar 2
not harmonics
e-----------------------------
b----14---10---9---5---3---2--
g-----------------------------
d----14---11---9---6---4---2--
a-----------------------------
E-----------------------------

0 reply
Homestyle_Joe 10 Jul 17, 2009 01:15 PM

Can someone finish up this song? I don't have the ear for figuring it out and this is one of my favorite songs, second favorite to By The Bed.

guest
Wanna post a correction for this tab? Suggest correction