Oops, an error
Loading. Please wait.

I Dont Mind Tab

7,454 views 7 this week
8 commentsread comments
1 2 3 4 5
excellent!
x 5
add to favorites
launch autoscroll
font size
0
reset
how to read this tab
guitar tuner
Tab Pro tools
  • play this tab
  • loop segment
  • change instrument
  • show fretboard
  • metronome
×
Best way to learn
"I Dont Mind"
Autoscroll
slow
fast
+/-
esc
set tempo
stop
Contributor
I Don't Mind
by Phantom Planet
from Raise the Dead

Tabbed by: Steven T.
Email: teenrockteam@yahoo.com

standard tuning.


intro into verse 1

this chord progression is the intro, as well as part of the first verse.
e|---------------------------------0-0-0---------------|
B|------------2-2-2----------------3-3-3---------------|
G|---2-2-2----2-2-2----------------1-1-1---------------|
D|---2-2-2----2-2-2-----2-2-2------2-2-2---------------|
A|---0-0-0----4-4-4-----2-2-2------2-2-2---------------|
E|-0--------0--------0--4-4-4---0--0-0-0---------------|

   My eyes go where I say so, but,


e|--2~---------------0~------------0~-----------------|
B|--3~---------------2~------------0~-----------------|
G|--2~---------------2~------------1~-----------------|
D|--0~---------------2~------------2~-----------------|
A|-------------------0~------------2~-----------------|
E|---------------------------------0~-----------------|

  not always   and not when you  walk by

e|----------------0-0-0-------------------------------------|
B|----------------3-3-3---------------2-2-2-----------------|
G|----------------1-1-1-----2-2-2-----2-2-2-----------------|
D|------2-2-2-----2-2-2-----2-2-2-----2-2-2-----------------|
A|------2-2-2-----2-2-2-----0-0-0-----4-4-4-----------------|
E|---0--4-4-4--0--0-0-0--0---------0---------0--------------|
  And my feet move where I tell them to, but


e|---2~-------------0~-----------2~-------------------------|
B|---3~-------------2~-----------3~-------------------------|
G|---2~-------------2~-----------2~-------------------------|
D|---0~-------------2~-----------0~-------------------------|
A|------------------0~--------------------------------------|
E|----------------------------------------------------------|


  not when they are chasing after you


e|---2~-------------0~------------0~------------------------|
B|---3~-------------2~------------0~------------------------|
G|---2~-------------2~------------1~------------------------|
D|---0~-------------2~------------2~------------------------|
A|------------------0~------------2~------------------------|
E|--------------------------------0~------------------------|

  and now i just don't know what i should do
  and i'm twisted all around like some cartoon

chorus(Note:try to have the higher notes outbalance the lower ones' volume)
e|-----0-0--2~---------2-2--0~----0-0--2~--------2-2--0~------|
B|-----0-0--3~---------3-3--0~----0-0--3~--------3-3--0~------|
G|-----1-1--2~---------2-2--1~----1-1--2~--------2-2--1~------|
D|-----2-2--0~-------0-0-0--2~----2-2--0~------0-0-0--2~------|
A|-----2-2------------------2~----2-2-----------------2~------|
E|---0-0-0----------------------0-----------------------------|

   But I don't mind.
                No, I don't mind.
                              Just stay close by
                                             Like all the time

e|-----0-0--2~-----2-2--0~--------------------------------------|
B|-----0-0--3~-----3-3--0~--------------------------------------|
G|-----1-1--2~-----2-2--1~--------------------------------------|
D|-----2-2--0~---0-0-0--2~--------------------------------------|
A|-----2-2--------------2~--------------------------------------|
E|---0-0-0------------------------------------------------------|

 Cause either I bleed dry
                 or keep this thorn in my side
                                 but I --

e|--------------------------------0-0-0------------------------------|
B|-------------2-2-2--------------3-3-3------------------------------|
G|-----2-2-2---2-2-2--------------1-1-1------------------------------|
D|-----2-2-2---2-2-2----2-2-2-----2-2-2------------------------------|
A|-----0-0-0---4-4-4----2-2-2-----2-2-2------------------------------|
E|---0-------0--------0-4-4-4---0-0-0-0------------------------------|

  don't mind..

repeat parts as necessary.


bridge

e|--2~---2~---2~---2~---2~---2~-------------------------------|
B|--3~---2~---3~---2~---3~---2~-------------------------------|
G|--2~---3~---2~---3~---2~---3~-------------------------------|
D|--0~---4~---0~---4~---0~---4~-------------------------------|
A|------------------------------------------------------------|
E|------------------------------------------------------------|

I spun the tucker telephone,
and I turned my eyes to bone
I kept dialing your number

e|--2-22----0-00----2-22~------------------------------------|
B|--3-33----2-22----3-33~------------------------------------|
G|--2-22----2-22----2-22~------------------------------------|
D|--0-00----2-22----0-00~------------------------------------|
A|----------0-00---------------------------------------------|
E|-----------------------------------------------------------|

       but you were not at home.   you're not --


e|--------------0-0-0-------------0-0-0-----------------------------|
B|--------------2-2-2-------------3-3-3-----------------------------|
G|-----2-2-2----2-2-2-------------1-1-1-----------------------------|
D|-----2-2-2----2-2-2----2-2-2----2-2-2-----------------------------|
A|-----0-0-0----4-4-4----2-2-2----2-2-2-----------------------------|
E|---0--------0--------0-4-4-4--0-0-0-0-----------------------------|

 alone.


the last part of the song you've already played by now, it's somewhere in here, figure 
out ;D

thanks for taking the time to try this.
comments
print report bad tab
8 comments total. Showing first comments.
0 reply
Homestyle_Joe wrote on June 10 2008, 07:07 pm

muchas gracias, I LOVE IT!

not positive if its perfect buts its perfect for the purpose I'm using it

0 reply
GERONIMO! wrote on August 4 2008, 03:28 am

http://www.youtube.com/watch?v=XVJAvMXb6XI

go to this link. i think he plays it differently than you have it. Yours is good though, I just want accuracy.

0 reply
xXparamoreroxXx wrote on October 13 2008, 05:21 pm

AAAAHH!!!! THANK YOU THANK YOU THANK YOU! ive been searching for this tab for about a year! :D you, my friend, rock.

I want to post or [tab]
guest
You may want to rate the tab now too:
select rating
Please do not post tabs as comments. Select "correction" instead!