Oops, an error
Loading. Please wait.

Making A Killing Tab

677 views 1 this week
no commentswrite comment
1 2 3 4 5
please rate
add to favorites
launch autoscroll
font size
0
reset
how to read this tab
guitar tuner
Tab Pro tools
  • play this tab
  • loop segment
  • change instrument
  • show fretboard
  • metronome
×
Best way to learn
"Making A Killing"
Autoscroll
slow
fast
+/-
esc
set tempo
stop
Contributor
-----------------------------------------------------------------
Making A Killing - Phantom Planet
-----------------------------------------------------------------
Tabbed by: Unabnormal
Email: darkdragonsky@mindless.com

Tuning: Standard

Note: This is not exactly what Darren/Alex plays. This is how I like
to play the song by myself and with my band, which doesn't exactly
have a bassist. Yet. Ahem.

Intro:
e|------------------------------------------|
B|-3----------------------------------------|
G|--4-4-2-----------------------------------|
D|-------4-4-2-2--------9-9-7-4-4-2-4-7-9-9-|
A|--------------5-2-2---9-9-7-4-4-2-4-7-9-9-|
E|----------------------7-7-5-2-2-0-2-5-7-7-|

Verse:
e|-----------------------------------------|
B|-----------------------------------------|
G|-4-4-2-----------------------------------|
D|------4-4-2-2--------9-9-7-4-4-2-4-7-9-9-| (x2)
A|-------------5-2-2---9-9-7-4-4-2-4-7-9-9-|
E|---------------------7-7-5-2-2-0-2-5-7-7-|

e|----------------------------|
B|----------------------------|
G|-9---4-4-2---------------9--|
D|-9--------4-4-2-2--------9--|
A|-7---------------5-2-2---7--|
E|----------------------------|

Chorus:
e|---------------------------------------|
B|---------------------------------------|
G|-4-4-2--------------4-4-2-------2-4-4--|
D|------4-4-2-2------------4-4-2-4-------|
A|-------------5-2-2---------------------|
E|---------------------------------------|

Verse:
e|-----------------------------------------|
B|-----------------------------------------|
G|-4-4-2-----------------------------------|
D|------4-4-2-2--------9-9-7-4-4-2-4-7-9-9-| (x2)
A|-------------5-2-2---9-9-7-4-4-2-4-7-9-9-|
E|---------------------7-7-5-2-2-0-2-5-7-7-|
(the first time through here, you just strum the muted strings instead of playing the main riff.)

e|---------------------------------------------------|
B|---------------------------------------------------|
G|-9---4-4-2---------------9-10-11-------------------|
D|-9--------4-4-2-2--------9-10-11-------------------|
A|-7---------------5-2-2---7-8--9--9-7---------------|
E|------------------------------------9-9-7-7-5-2-2--|

Chorus:
e|---------------------------------------|
B|---------------------------------------|
G|-4-4-2--------------4-4-2-------2-4-4--|
D|------4-4-2-2------------4-4-2-4-------| (x2)
A|-------------5-2-2---------------------|
E|---------------------------------------|

Bridge:
e|--------------------------------------------|
B|--------------------------------------------|
G|-6-6--9-9--8-8--6-6---6-6--9-9--8-8-11-6-6--|
D|-6-6--9-9--8-8--6-6---6-6--9-9--8-8-11-6-6--| (x2)
A|-4-4--7-7--6-6--4-4---4-4--7-7--6-6-9--4-4--|
E|--------------------------------------------|

e|------------------|
B|------------------|
G|-6-6-4------------|
D|------6-6-5-4-----| (x2)
A|--------------7-4-|
E|------------------|

e|-------------------------------|
B|-------------------------------|
G|-11-12-13----------------------|
D|-11-12-13----------------------|
A|-9--10-11-11-9-----------------|
E|---------------11-11-9-9-7-4-4-|

Chorus:
e|---------------------------------------|
B|---------------------------------------|
G|-6-6-4--------------6-6-4--------4-6-6-|
D|------6-6-4-4------------6-6-4-6-------| (x2)
A|-------------7-4-4---------------------|
E|---------------------------------------|

e|---------------------------------------|
B|---------------------------------------|
G|-6-6-4--------------6-6-4--------4-6-6-|
D|------6-6-4-4------------6-6-4-6---6-6-| 
A|-------------7-4-4-----------------4-4-|
E|---------------------------------------|
comments
We did not receive enough feedback on this tab! Please rate:
print report bad tab
1 2 3 4 5
I want to post or [tab]
guest
You may want to rate the tab now too:
select rating
Please do not post tabs as comments. Select "correction" instead!