Oops, an error
Loading. Please wait.

Happy Bass Tab

version 1
version 1

Whole song

Interactive

122,789 views 198 this week
3 commentsread comments
1 2 3 4 5
excellent!
x 41
add to favorites
launch autoscroll
font size
0
reset
guitar tuner
Autoscroll
slow
fast
+/-
esc
set tempo
stop
Help us to improve Ultimate-Guitar.com Take our survey!
×
Contributor
Difficulty
intermediate
Pharrell Williams - Happy


[Intro]

G|--------------------------------|
D|-15-15-15-15-15-----------------|
A|--------------------------------|
E|--------------------------------|


[Verse]

G|----13-15-13-17-15-13----13-----|----13-15-13-17-----------------|
D|-15-------------------15----15--|-15-----------------------------|
A|--------------------------------|------------------8-6-------8---|
E|--------------------------------|----------------------8-6-4-----|


G|--------------------------------|----13-15-13-17-----------------|
D|---6-8-6-10-8-6---6-------------|-15-----------------------------|
A|-8--------------8---------------|------------------8-6-----------|
E|--------------------1-----------|----------------------8-6-4-4---|


[Chorus]

G|------------------------------------------------10----|
D|----------11------------10----------10----------------|
A|-------11------------10----------10----8-8--8-8-------|
E|-9-9-9-------8-8-8-8-------8-8-8----------------------|

Last one play...

G|--------------------------------------------------10----|
D|----------11------------10----------10------------------|
A|-------11------------10----------10----8-8--8-8-8----8--|
E|-9-9-9-------8-8-8-8-------8-8-8------------------------|


There's nothing really in the interlude bits however I Play this with the drum...

G|--------------------------------------|
D|--------------------------------------|
A|--------------------------------------|
E|-1--1-1---1--1-1---1--1-1---1--1-1----|

And thats it... Ive made a Video using this tab here...

http://www.youtube.com/watch?v=ZkpP-yV--bY

Have fun with it
Suggest correction new What's this?
You can suggest a correction to this tab. Community and Mods will review your correction and vote to approve or reject it.
comments
print report bad tab
3 comments total.
0 reply
Hadidy 14 wrote on March 7 2014, 10:31 pm

Too accurate; it's kinda scary!

0 reply
deltron13 81 wrote on April 5 2014, 04:13 am

ive no complaint, lol amazing tab

0 reply
Epiman648 29 wrote on October 3 2014, 04:39 pm

Awesome!! There is a reason this is the only version on here! Thanks!

guest
You may want to rate the tab now too:
select rating
Please do not post tabs as comments. Select "correction" instead!