Oops, an error
Loading. Please wait.
We have an official Happy tab made by UG professional guitarists. Check out the tab »
×
54,117 views 174 this week
10 commentsread comments
1 2 3 4 5
x 29
add to favorites
launch autoscroll
font size
0
reset
how to read this tab
guitar tuner
Autoscroll
slow
fast
+/-
esc
set tempo
stop
Author
Difficulty
intermediate
Hi everyone,
I made this TAB based on my Videotutorial. It is in German, but you might find it 
helpful after all.


Check it out! http://youtu.be/t2x6zTIO_nQ

Here you can find the Cover to get a feeling how it sounds: http://youtu.be/mOX43oI9FuQ
No Capo.

[Intro/Verse]

e|------------------------|------------------------|---x-----x-----x--x-----|
B|------------------------|------------------------|---x-----x-----x--x-----|
G|------------------------|------------------------|---x-----x-----x--x-----|
D|------------------------|------------------------|---x-----x-----x--x-----|
A|------------1--------3--|---3-----1-----1--------|---x-----x-----x--x-----|
E|1-----4-----------4-----|------------------4-----|1--x-----x-----x--x-----|
  1  &  2  &  3  &  4  &   1  &  2  &  3  &  4  &   1  &  2  &  3  &  4  &

e|---x-----x-----x--x-----|
B|---x-----x-----x--x-----|
G|---x-----x-----x--x-----|
D|---x-----x-----x--x-----|
A|---x-----x-----x--x-----|
E|---x-----x-----x--x-----|
  1  &  2  &  3  &  4  &

[Refrain]
Chords (Finger in brackets)

DesMaj7/9  C-Minor7    F7
Es-Major    F-MinorB5   F-Major
e|--0-----|  |--x-----|  |--1(1)--|  |--x-----|  |--x-----|  |--x-----|
B|--4(3)--|  |--4(4)--|  |--1(1)--|  |--x-----|  |--x-----|  |--x-----|
G|--5(4)--|  |--3(3)--|  |--2(2)--|  |--3(4)--|  |--4(4)--|  |--5(4)--|
D|--3(1)--|  |--1(1)--|  |--1(1)--|  |--1(1)--|  |--3(1)--|  |--3(1)--|
A|--4(2)--|  |--3(2)--|  |--3(3)--|  |--x-----|  |--x-----|  |--x-----|
E|--x-----|  |--x-----|  |--1(1)--|  |--3(3)--|  |--4(3)--|  |--5(3)--|

    F7/9
e|--8(4)--|
B|--8(4)--|
G|--8(4)--|
D|--7(1)--|
A|--8(3)--|
E|--x-----|


Because I'm     (happy)

DesMaj7/9  C-Minor7           C-Minor7       F7
Clap along if you feel like a room without a roof

Because I'm      (happy)

DesMaj7/9  C-Minor7         C-Minor7          F7   Es-Major F-MinorB5 F-Major
Clap along if you feel like happiness is the  truth

Because I'm     (happy)

DesMaj7/9  C-Minor7         C-Minor7        F7
Clap along if you know what happiness is to you

Because I'm     (happy)
DesMaj7/9  C-Minor7         C-Minor7            F7 Es-Major F-MinorB5 F-Major
Clap along if you feel like that's what you wanna do


[Bridge]
For the brigde like to do a rhythm by hitting on the guitar. So basically, I Strumm the
F7/9 on the first beat and do the drumming for the rest of the part.

Check out the Video: http://youtu.be/t2x6zTIO_nQ



************************************

| x    Dead note
| (n)  Ghost note

************************************
Suggest correction
comments
print report bad tab
10 comments total. Showing first comments.
0 reply
talha.ertan.73 10 Feb 10, 2014 05:59 AM

Really liked your version. Thanks

0 reply
RoBdJ35 10 Mar 05, 2014 12:30 AM

Here are the keyboard chord voicings for the chorus - an octave higher than the ones you have.


DbM7 Cm7
e|------8--------6---------6--------5-------|
B|------9--------8---------6--------6-------|
G|------10-------8---------8--------5-------|
D|------------------------------------------|
A|----------------------------------8-------|
E|------9--------8---------8----------------|

0 reply
RoBdJ35 10 Mar 05, 2014 12:34 AM, edited at 05:35 am

Sorry, that should have read as follows:Keyboard chord voicings for the chorus - an octave higher than the ones you have printed. Enjoy. This is the first time I'm posting, apologies for the misaligned tab.

guest
You may want to rate the tab now too:
select rating
Wanna post a correction for this tab? Suggest correction