Oops, an error
Loading. Please wait.
We have an official Happy tab made by UG professional guitarists. Check out the tab »
×

Happy Chords

version 2
version 2

Whole song

Interactive

Video

24,221 views 138 this week
no commentswrite comment
1 2 3 4 5
x 7
add to favorites
×
Save as Personal and add changes to this tab that will be seen only by you. Learn more ›
×
You can save this tab as Personal to edit and correct it or add notes. All changes will be seen only by you. Learn more »
save as personal
new!
launch autoscroll
font size
0
reset
transpose
0
reset
simplify chords
display chords
guitar tuner
Autoscroll
slow
fast
+/-
esc
set tempo
stop
Difficulty
intermediate
Strumming
There is no strumming pattern for this song yet. and get +5 IQ
[Intro]
e|----------------------------------------------------------|
B|----------------------------------------------------------|
G|----------------------------------------------------------|
D|----------------------------------------------------------|
A|--2--2--2--2--2-------------------------------------------|
E|--0--0--0--0--0-------------------------------------------|

[Riff 1]
e|-----------------------------------------------------------|
B|-----------------------------------------------------------|
G|-----------------------------------------------------------|
D|-----------------------------------------------------------|
A|--77--55--33--22-------------------------------------------|
E|-----------------------------------------------------------|

[Riff 2]
e|-----------------------------------------------------------|
B|-----------------------------------------------------------|
G|-----------------------------------------------------------|
D|-----------------------------------------------------------|
A|---2-2--44--5-555--4-4---2---------------------------------|
E|-----------------------------------------------------------|

[Verse]
It might seem crazy
What I'm about to say

[Riff 1]
e|-----------------------------------------------------------|
B|-----------------------------------------------------------|
G|-----------------------------------------------------------|
D|-----------------------------------------------------------|
A|--77--55--33--22-------------------------------------------|
E|-----------------------------------------------------------|

Sunshine, she's here
You can take a break

[Riff 1]
e|-----------------------------------------------------------|
B|-----------------------------------------------------------|
G|-----------------------------------------------------------|
D|-----------------------------------------------------------|
A|--77--55--33--22-------------------------------------------|
E|-----------------------------------------------------------|

I'm a hot air balloon
That could go to space

[Riff 1]
e|-----------------------------------------------------------|
B|-----------------------------------------------------------|
G|-----------------------------------------------------------|
D|-----------------------------------------------------------|
A|--77--55--33--22-------------------------------------------|
E|-----------------------------------------------------------|

With the air
Like I don't care
Baby, by the way

[Riff 1]
e|-----------------------------------------------------------|
B|-----------------------------------------------------------|
G|-----------------------------------------------------------|
D|-----------------------------------------------------------|
A|--77--55--33--22-------------------------------------------|
E|-----------------------------------------------------------|

[Chorus]
               E
Uh, because I'm happy
           D                  D6             E
Clap along if you feel like a room without a roof
            E
Because I'm happy
           D                  D6             E
Clap along if you feel like happiness is the truth
            E
Because I'm happy
           D                  D6            E
Clap along if you know what happiness is to you
            E
Because I'm happy
           D                  D6                  E
Clap along if you feel like that's what you wanna do

[Verse]
Here come bad news
Talking this and that (Yeah)

[Riff 1]
e|-----------------------------------------------------------|
B|-----------------------------------------------------------|
G|-----------------------------------------------------------|
D|-----------------------------------------------------------|
A|--77--55--33--22-------------------------------------------|
E|-----------------------------------------------------------|

Well, gimme all you got
And don't hold back (Yeah)

[Riff 1]
e|-----------------------------------------------------------|
B|-----------------------------------------------------------|
G|-----------------------------------------------------------|
D|-----------------------------------------------------------|
A|--77--55--33--22-------------------------------------------|
E|-----------------------------------------------------------|

Well, I should probably warn you
I'll be just fine (Yeah)

[Riff 1]
e|-----------------------------------------------------------|
B|-----------------------------------------------------------|
G|-----------------------------------------------------------|
D|-----------------------------------------------------------|
A|--77--55--33--22-------------------------------------------|
E|-----------------------------------------------------------|

No offense to you
Don't waste your time

[Riff 1]
e|-----------------------------------------------------------|
B|-----------------------------------------------------------|
G|-----------------------------------------------------------|
D|-----------------------------------------------------------|
A|--77--55--33--22-------------------------------------------|
E|-----------------------------------------------------------|

Here's why

[Chorus]
               E
Uh, because I'm happy
           D                  D6             E
Clap along if you feel like a room without a roof
            E
Because I'm happy
           D                  D6             E
Clap along if you feel like happiness is the truth
            E
Because I'm happy
           D                  D6            E
Clap along if you know what happiness is to you
            E
Because I'm happy
           D                  D6                  E
Clap along if you feel like that's what you wanna do

[Bridge]
Happy
Bring me down
Can't noting (Happy)
Bring me down
My level's too high (Happy)
To bring me down
Can't noting (Happy)
Bring me down

[Riff 2]
e|-----------------------------------------------------------|
B|-----------------------------------------------------------|
G|-----------------------------------------------------------|
D|-----------------------------------------------------------|
A|---2-2--44--5-555--4-4---2---------------------------------|
E|-----------------------------------------------------------|

I said (Happy happy)
Bring me down (Happy, happy)
Can't noting (Happy, happy)
Bring me down (Happy, happy)
My level's too high (Happy, happy)
To bring me down (Happy, happy)
Can't noting (Happy, happy)
Bring me down
I said

[Chorus] (x2)
               E
Uh, because I'm happy
           D                  D6             E
Clap along if you feel like a room without a roof
            E
Because I'm happy
           D                  D6             E
Clap along if you feel like happiness is the truth
            E
Because I'm happy
           D                  D6            E
Clap along if you know what happiness is to you
            E
Because I'm happy
           D                  D6                  E
Clap along if you feel like that's what you wanna do

[Bridge]
(Riff 2)
e|-----------------------------------------------------------|
B|-----------------------------------------------------------|
G|-----------------------------------------------------------|
D|-----------------------------------------------------------|
A|---2-2--44--5-555--4-4---2---------------------------------|
E|-----------------------------------------------------------|

Happy, happy
Bring me down (Happy, happy)
Can't noting (Happy, happy)
Bring me down (Happy, happy)
My level's too high (Happy, happy)
To bring me down (Happy, happy)
Can't noting (Happy, happy)
Bring me down
I said

[Chorus] (x2)
               E
Uh, because I'm happy
           D                  D6             E
Clap along if you feel like a room without a roof
            E
Because I'm happy
           D                  D6             E
Clap along if you feel like happiness is the truth
            E
Because I'm happy
           D                  D6            E
Clap along if you know what happiness is to you
            E
Because I'm happy
           D                  D6                  E
Clap along if you feel like that's what you wanna do
Suggest correction
comments
print report bad tab
guest
Wanna post a correction for this tab? Suggest correction