Oops, an error
Loading. Please wait.

Finally Ive Flown Tab

19 views 1 this week
no commentswrite comment
1 2 3 4 5
3 more votes to show rating
add to favorites
launch autoscroll
font size
0
reset
how to read this tab
guitar tuner
Autoscroll
slow
fast
+/-
esc
set tempo
stop
Help us to improve Ultimate-Guitar.com Take our survey!
×
Author
Difficulty
intermediate
About this tab version
Shows exact finger picking pattern. Was this info helpful? Yes No
 ----------- FINALLY I'VE FLOWN - PhemieC -------------- 
Tabbed by: kmlusky
Tuning: Standard

Phemiec - Songs for Sad Troll
1. Made of Death [A capella]
2. Finally I've Flown
3. Double Time
4. Friend, Leader
5. Furever
6. Mary
7. A Confession
8. An Apology
9. Inherit Nothing [A capella]
10. Little Clown
11. Ugly Story
12. Save You



[Intro]

e|---------------------------------------------------------------------------|
B|---------------------------------------------------------------3-1---------|
G|-------2----4-2---------2----3-2---------2----4-2---------2----------------|
D|-----4----4-----------3----3-----------4----4-----------3----3-------------|
A|---4------------4---3------------3---4------------4---3--------------------|
E|-2----------2-2---1----------1-1---2----------2-2---1----------1-1---------|


[Verse]

e|---------------------------------------------------------------------------|
B|---------------------------------------------------------------3-1---------|
G|-------2----4-2---------2----3-2---------2----4-2---------2----------------|
D|-----4----4-----------3----3-----------4----4-----------3----3-------------|
A|---4------------4---3------------3---4------------4---3--------------------|
E|-2----------2-2---1----------1-1---2----------2-2---1----------1-1---------|


[Chorus]

e|---------------------------------------------------------------------------|
B|---------------------------------------------------------------------------|
G|-------------------------------------------------5-5-5-------5-5-5---------|
D|-4-4-4/6-7-7\2-2-2/5-5-5\4-4-4/7-7-7\2-2-2/5-5-5-5-5-5-5-5-5-5-5-5-5-------|
A|-4-4-4/6-7-7\2-2-2/5-5-5\4-4-4/7-7-7\2-2-2/5-5-5-3-3-3-5-5-5-3-3-3-5-------|
E|-2-2-2/5-5-5\0-0-0/3-3-3\2-2-2/5-5-5\0-0-0/3-3-3-------3-3-3-------3-------|


[Outro]

e|---------------------------------------------------------------------------|
B|---------------------------------------------------------------3-1---------|
G|-------2----4-2---------2----3-2---------2----4-2---------2----------------|
D|-----4----4-----------3----3-----------4----4-----------3----3-------------|
A|---4------------4---3------------3---4------------4---3--------------------|
E|-2----------2-2---1----------1-1---2----------2-2---1----------1-1---------|

************************************

| x   Dead note
| g   Grace note
| (n) Ghost note
| h   Hammer-on
| p   Pull-off
| r   Release
| >   Accented note
| t   Tapping
| b   Bend
| br  Bend release
| pb  Pre-bend
| pbr Pre-bend release
| /   Slide up
| \   Slide down
| ~   Vibrato
| s   Slap
| P   Pop
| PM  Palm mute
| TR  Trill
| N   Tremolo

************************************
Suggest correction
Give kudos to tab author, rate the tab!
1 2 3 4 5
comments
print report bad tab
guest
You may want to rate the tab now too:
select rating
Wanna post a correction for this tab? Suggest correction