Oops, an error
Loading. Please wait.

Friendleader tab

version 1
version 1

Whole song

by Phemiec
1,216 views 24 this week
4 commentsread comments
1 2 3 4 5
3 more votes to show rating
add to favorites
×
Save as Personal and add changes to this tab that will be seen only by you. Learn more ›
×
You can save this tab as Personal to edit and correct it or add notes. All changes will be seen only by you. Learn more »
launch autoscroll
font size
0
reset
how to read this tab
guitar tuner
edit
Autoscroll
slow
fast
+/-
esc
set tempo
stop
-------------------------------------------------------------------------------
                             Friendleader - PhemieC
-------------------------------------------------------------------------------
Tabbed by: tejanostuck

Tuning: Drop D

no one seems to have uploaded any attempt towards a PhemieC tab sheet, so i thought i would do one !!
feel free to comment on anything you think needs to be changed but other than that have fun

intro:

e|------------------------------------------------------------|
B|------------------------------------------------------------|
G|------------------------------------------------------------|
D|-------5------------------5-----------------5---------------|
A|---3------3---3-------5------5---5------3------3---3--------|
D|-6---6------6-------8---8------8------6---6------6-----8~---|x1

verse 1 & 2:

There will be no soft sounds this time no arms, not mine at least....
No more attempts to make you see I tried he succeeded, oh well....
e|---------------------------------------------------------------|
B|---------------------------------------------------------------|
G|---------------------------------------------------------------|
D|-------5------------------5-----------------5----------------5~|
A|---3------3---3-------5------5---5------3------3---3-----5-----|
D|-6---6------6-------8---8------8------6---6------6-----8---8---|x4

prechorus part 1:

I used to blame myself then I blamed everybody else but never you...
i used to blame myself then I blamed everybody else including you...
e|-4~----4-3~----3-4-4--4-4-4-3~--|
B|-4~----4-4~----4-4-4--4-4-4-4~--|
G|-5~----5-5~----5-5-5--5-5-5-5~--|
D|-6~----6-5~----5-6-6--6-6-6-5~--|
A|-6~----6-3~----3-6-6--6-6-6-3~--|
D|-4~----4-3~----3-4-4--4-4-4-3~--|


prechorus part 2:
Cause you were just a messed up kid...
but you were perfect as you were...
e|---------------------------------------------------------------------------|
B|------------------------------1-1---1--------------------------------------|
G|---------------------------------------------------------------------------|
D|---5----1----5----1--5~-----3-----3----------------------------------------|
A|---3----1----3----1--3~----------------------------------------------------|
D|-3----1----3----1----3~----------------------------------------------------|

repeat prechorus part 1

prechorus part 3:
maybe I deserve that hurt...
well now it's my turn to confess...
e|---------------------------------------------------------------------------|
B|---------------------------------------------------------------------------|
G|---------------------------------------------------------------------------|
D|---5----1----5----1--3~---5~---10~-----------------------------------------|
A|---3----1----3----1--3~---5~---10~-----------------------------------------|
D|-3----1----3----1----3~---5~---10~-----------------------------------------|

chorus:
I'm sorry I messed up...
e|-----------|
B|-----------|
G|-----------|
D|---5----1--|
A|---3----1--|
D|-3----1----| x3

I'm not the leader...
e|-----------|
B|-----------|
G|-----------|
D|---5~------|
A|---3~------|
D|-3~--------|

bridge:

said a thousand words but they never helped...
e|-4---4-3---3---|
B|-4---4-3---3---|
G|-5---5-4---4---|
D|-6---6-5---5---|
A|-6---6-5---5---|
D|-4---4-3---3---| x2

took up the cause...
e|-4-4---4-4-4-3-3---3-3-3---|
B|-4-4---4-4-4-3-3---3-3-3---|
G|-5-5---5-5-5-4-4---4-4-4---|
D|-6-6---6-6-6-5-5---5-5-5---|
A|-6-6---6-6-6-5-5---5-5-5---|
E|-4-4---4-4-4-3-3---3-3-3---| x20

e|-4~---|
B|-4~---|
G|-5~---|
D|-6~---|
A|-6~---|
E|-4~---|


************************************

| /   slide up
| \   slide down
| h   hammer-on
| p   pull-off
| ~   vibrato
| +   harmonic
| x   Mute note
| b   Bend
| pb  Pre-bend
| br  Bend release
| pbr Pre-bend release
| brb Bend release bend

************************************

            
            
Suggest correction
Creating personal tab
Creating personal tab
You can edit any tab online and save it as your Personal.

You can edit, replace or remove any tab part or add personal notes – all changes will be seen only by you.

Personal tabs can be accessed anytime from any device, even offline.
Learn more »
Give kudos to tab author, rate the tab!
1 2 3 4 5
comments
print report bad tab
4 comments total. Showing first comments.
0 reply
vm4592 51 Jul 03, 2016 01:55 PM

I've been wanting to learn this song for so long but I cant figure out the tuning... Could you help please?...

guest
You may want to rate the tab now too:
select rating
Wanna post a correction for this tab? Suggest correction