Oops, an error
Loading. Please wait.

Ugly Story tab

version 2
version 2

Whole song

by Phemiec
814 views 18 this week
no commentswrite comment
1 2 3 4 5
1 last vote to show rating
add to favorites
×
Save as Personal and add changes to this tab that will be seen only by you. Learn more ›
×
You can save this tab as Personal to edit and correct it or add notes. All changes will be seen only by you. Learn more »
launch autoscroll
font size
0
reset
how to read this tab
guitar tuner
edit
Autoscroll
slow
fast
+/-
esc
set tempo
stop
Ugly Story-fan song about Eridan Ampora, written by PhemieC.. Check out their music on youtube or Tumblr!
(also check out my tab for finally ive flown)

A

e|----------------------------------------------------------------------
B|--------------------------------2----------------------------------2--
G|---4----4-----------------------------4----4--------------------------
D|---4----4---4----4---4----4---4---4---4----4---4----4---4----4---4---4
A|---2----2---7----7---5----5-----------2----2---7----7---5----5--------
B|-0----0---5----5---3----3---7-------0----0---5----5---3----3---7------

B

e|--------------------------------------------------------
B|--------------------------------------------------------
G|-4--4-4----------------------4--4-4---------------------
D|-4--4-4-4--4-4-4--4-4-4--4-4-4--4-4-4--4-4-4--4-4-4--4-4
A|-2--2-2-7--7-7-5--5-5-4--4-4-2--2-2-7--7-7-5--5-5-4--4-4
B|-0--0-0-5--5-5-3--3-3-7--7-7-0--0-0-5--5-5-3--3-3-7--7-7

C

e|------------------------------------------------------------------
B|------------------------------------------------------------------
G|-----3---4-------------4-------3---4-------------4-------------4--
D|---4---4-4-----4----4--4-----4---4-4-----4----4--4-----4----4--4--
A|---------2-----7----5--2-----------2-----7----5--2-----7----5--2--
B|-3-------0---5----3----0---3-------0---5----3----0---5----3----0--

A
I am a prince and I live in a ship and I aim my rifle and I shoot from the hip
And I have a friend I pity quite a bit
She said, “Grab your gun, let's have some fun, share with me your perigees 
I have responsibilities, I cannot run!”

B
“I do not wish the death of any living thing, 
I might be a killer but one day I shall be queen 
and put an end to slaughter, but until then I'm keen 
on staking claim to land and sea and everyfin between.”

A
I played a game with eleven fools who told me not to break the rules
But when have angels ever helped me yet?
And magic isn't real and anyway it doesn't matter 
'Cause no matter what I conjure it could not help be me deflect

B
The angry death of every hopeful thought 
That I might be a lover or a fighter that I’m not 
In someones spider web or net I could be caught 
But I'm too bitter, better off alone, guess I forgot

C
So what? Do you want me to say sorry?
Should I apologize, when you ignore me?
I didn't ask to be right or to be lonely
Or to be hatched into an ugly story

A
I am a prince and I had a pair of princesses in two sharp squares
But then I guess I bored them both to death
And now I think my calling is to break apart and fall to pieces
Better yet invent a brand new method of ascension

B
I'm impressed, you've managed to survive 
But rest assured we'd all be better off dead than alive 
'Cause when they get ahold of us we'll all be batter fried 
And I'm surprised that nobody's considered switching sides

A
So here I am, respectfully and royally destroying 
Any chance of getting back on your good gills
And I don't want to be hurtful but if yellows the new purple 
Well then bleeding's the new breathing, don't you think I will!

B
I used to wish the death of every living thing 
I might be your killer but you'd never be my queen 
So put away your laughter, pack up your hopes and dreams 
I'm done with black back-handing and red pandering, it seems

B
That I am just pathetic, I won't be overlooked 
I'm past the point of fishing to get back upon your hook 
I've made a manifesto, I've been bested by a crook, but never more! 
I'm planning on reclaiming what he took...

C
So what? do you want me to say sorry?
Should I apologize, when you ignore me?
I didn't ask to be right or to be lonely
Or to be hatched into an ugly story
To be hatched into an ugly story

C
Oh my, this pantomime is getting gory

A
I am a prince and I live in a ship
I am a prince and I live in a ship
Suggest correction
Creating personal tab
Creating personal tab
You can edit any tab online and save it as your Personal.

You can edit, replace or remove any tab part or add personal notes – all changes will be seen only by you.

Personal tabs can be accessed anytime from any device, even offline.
Learn more »
Give kudos to tab author, rate the tab!
1 2 3 4 5
comments
print report bad tab
guest
You may want to rate the tab now too:
select rating
Wanna post a correction for this tab? Suggest correction