Oops, an error
Loading. Please wait.

Prequiem Tab

version 1
version 1

Whole song

Interactive

88 views 1 this week
no commentswrite comment
1 2 3 4 5
excellent!
x 3
add to favorites
launch autoscroll
font size
0
reset
how to read this tab
guitar tuner
Autoscroll
slow
fast
+/-
esc
set tempo
stop
Help us to improve Ultimate-Guitar.com Take our survey!
×
Author
Difficulty
novice
                                          Artist - Phideaux
                                         *******************
                                           Song - Prequiem
                                          *****************
                                          Album - Number 7
                                         ******************


Guitar 1 - Acoustic Strumming.
Guitar 2 - Electric Strumming.
Guitar 3 - Electric Picking.
Guitar 4 - Guitar Solo.


Guitars 1 & 2
Acoustic and Electric Stum these chords.
*****************************************
Cm Bb F
Cm Bb F


Guitar 3 
Picking
********
[----8---8-------8---8-------6---6-------8-----8--]
[-------------8----8------6----6------------------]
[--8---8------------------------------10----10----]
[-------------------------------------------------]X2
[-------------------------------------------------]
[-------------------------------------------------]


Cm                    Bb                    F
Ahh Ahhh Ahhhh Ahhh   Ahh Ahhh Ahhhh Ahhh   Ahh Ahhh Ahhhh Ahhh    
Cm                    Bb                    F
Ahh Ahhh Ahhhh Ahhh   Ahh Ahhh Ahhhh Ahhh   Ahh Ahhh Ahhhh Ahhh
Cm                    Bb                    F
Ahh Ahhh Ahhhh Ahhh   Ahh Ahhh Ahhhh Ahhh   Ahh Ahhh Ahhhh Ahhh

Cm                    Eb                    F
Ahh Ahhh Ahhhh Ahhh   Ahh Ahhh Ahhhh Ahhh   Ahh Ahhh Ahhhh Ahhh
Eb                    F
Ahh Ahhh Ahhhh Ahhh   Ahh Ahhh Ahhhh Ahhh  


SOLO - Guitar 4
****************
00:50
Cm           Bb              F      Cm                     Bb
                                      s         s
[------------------------s---13--|--13\15-----16\15-----|-------s---18--]
[----s---13----s---15--11\13-----|--------13--------13--|--13-13\18-----]
[--10\12-----12\15---------------|----------------------|---------------]
[--------------------------------|----------------------|---------------]
[--------------------------------|----------------------|---------------]
[--------------------------------|----------------------|---------------]

    F               Cm          Bb          F                 Cm  
                   s
[----s--17---18--18\20--|---b-r---p------------------------------------]
[--13\------------------|--18---18-16-------h--------------------------]
[-----------------------|-------------17--15-17-------s-----b-------s--]
[-----------------------|-----------------------15--15\17-13------13\--]
[-----------------------|-------------------------------------15-------]
[-----------------------|----------------------------------------------]

   Eb                    F       Eb                    F
       Ahhhh             Ahhhhh       I    have   no   fear
Use Wha Wha pedal here
[-----------------------------|--------------------------s--]
[-----------------------------|-------------b---p------13\--]
[-------------b---p--------s--|--s---12-14-14-14-12---------]
[--s---13-15-15-15-13----13\--|--\14----------------13------]
[--\15----------------15------|-----------------------------]
[-----------------------------|-----------------------------]

               Eb                  F                     Eb
                   I     have      no    fear                   I     have
                                                           p        p
[----------b---p--------p-------|----p--------p-------|--20-15----20-15----]
[--s---16-18-18-16----18-16-----|--20-16----20-16-----|--------------------]
[--\17-------------17-------17--|--------17-------17--|--------17-------17-]
[-------------------------------|---------------------|--------------------]
[-------------------------------|---------------------|--------------------]
[-------------------------------|---------------------|--------------------]

    F              Cm
    no fear  any   more
                   b
[----p------15-18-18--]
[--20-16--------------]
[--------17-----------]
[---------------------]
[---------------------]
[---------------------]

Cm Bb F
Cm Bb F


Great tune.......
Suggest correction
Give kudos to tab author, rate the tab!
1 2 3 4 5
comments
print report bad tab
guest
You may want to rate the tab now too:
select rating
Please do not post tabs as comments. Select "correction" instead!