Oops, an error
Loading. Please wait.

Sick Of Me Chords

108 views 1 this week
no commentswrite comment
1 2 3 4 5
x 4
add to favorites
launch autoscroll
font size
0
reset
transpose
0
reset
display chords
guitar tuner
Autoscroll
slow
fast
+/-
esc
set tempo
stop
Help us to improve Ultimate-Guitar.com Take our survey!
×
Author
Difficulty
novice
                                          Artist - Phideaux
                                         *******************
                                          Song - Sick Of Me
                                         *******************
                                              Album - 313
                                             *************
                                         Tabbed By - Ayreon77
                                        **********************



INTRO - PIANO
******
-----------------------------------------
Guitar - Gm Eb Gm Bb Eb Gm
*******
-----------------------------------------
Verse 1
********
Gm            Eb   Cm        Gm
  I'm sick of me - I'm sick of me
Bb          Eb      Cm        Gm
  I hear my voice - I want to scream
Gm            Eb Cm         Gm 
  I'm sick of me and what I see
Bb        Eb   Cm               Gm
  In your eyes when you look at me

-----------------------------------------
CHORUS
*******
Bb                Cm         Eb          Gm 
Eyes that say I'm beautiful, they are so wrong
Cm        Gm     Bb      Cm
  I don't belong in your company

-----------------------------------------
VERSE 2
********
Gm              Eb     Cm   Gm
Hands above the clouds underground
Bb          Eb   Cm       Gm
  I want to join with you somehow
Gm            Eb  Cm        Gm 
  I'm sick of me  what I've become
Bb            Eb    Cm        Gm
  I loved you more, more than anyone

-----------------------------------------
BRIDGE - Heavy Distorted Guitar
*******
Gm               Eb         Cm          Gm
You think I'm so wonderful, it won't be long
Bb        Eb     Cm      Gm   
  I don't belong in your company
Gm                 Eb         Cm         Gm         
You don't know the half of it and if you did
Bb           Eb  Cm    Gm
  You'd want rid of my company


Heavy Distorted Guitar
 Gm                Eb                Cm                Gm
[-----------------|-----------------|-----------------|-----------------|
[-----------------|-----------------|-----------------|-----------------|
[-----------------|-----------------|-----------------|-----------------|
[-----------------|-8-8-8-8-8-8-8-8-|-5-5-5-5-5-5-5-5-|-----------------|
[-5-5-5-5-5-5-5-5-|-6-6-6-6-6-6-6-6-|-3-3-3-3-3-3-3-3-|-5-5-5-5-5-5-5-5-|
[-3-3-3-3-3-3-3-3-|-----------------|-----------------|-3-3-3-3-3-3-3-3-|

 Bb                Eb                Cm                Gm
[-----------------|-----------------|-----------------|-----------------|
[-----------------|-----------------|-----------------|-----------------|
[-----------------|-----------------|-----------------|-----------------|
[-----------------|-8-8-8-8-8-8-8-8-|-5-5-5-5-5-5-5-5-|-----------------|
[-8-8-8-8-8-8-8-8-|-6-6-6-6-6-6-6-6-|-3-3-3-3-3-3-3-3-|-5-5-5-5-5-5-5-5-|
[-6-6-6-6-6-6-6-6-|-----------------|-----------------|-3-3-3-3-3-3-3-3-|X2


-----------------------------------------
CHORUS
*******
Bb                 Cm          Eb           Gm 
My eyes say you're beautiful - They are not wrong
Cm        Gm     Bb    Cm
  And you belong in my company

-----------------------------------------
Im Not sure what this instrument is, either a keyboard or guitar, 
but i,ve tab it out.

02:21
 Gm    Eb   Cm        Gm  Bb         Eb       Cm  Gm
[------------------------------------------------------|
[-3---------1--3--4-----------1---3---1--------4---3-3-|
[------0--------------0---3---------------3------------|
[------------------------------------------------------|
[------------------------------------------------------|
[------------------------------------------------------|


[----------8-------10----|--8------------------------|------------------|
[-11--8-8-----8-8------8-|-----8-8---11--8-8---10--8-|-11--8-8-10--8--6-|
[------------------------|---------------------------|------------------|
[------------------------|---------------------------|------------------|
[------------------------|---------------------------|------------------|
[------------------------|---------------------------|------------------|


[------------------|-----------------------------|
[-8--8-8-8--8--8-8-|-3-4-6-4-3--4--3-3-3-3-3-3-3-|
[------------------|-----------3-----------------|
[------------------|-----------------------------|
[------------------|-----------------------------|
[------------------|-----------------------------|


-----------------------------------------
VERSE 3 Heavy Distorted Guitar - See Above
********
Gm        Eb  Cm          Gm
  sick of me  I'm sick of me
Bb           Eb  Cm            Gm
  Because of you what you must see
Gm          Eb  Cm        Gm
I'm sick of me  All I can say
Bb          Eb   Cm         Gm
  I look at you  Make it go away


-----------------------------------------
CHORUS
*******
Bb                 Cm         Eb          Gm 
I still say you're wonderful, the way you are
Cm        Gm      Bb    Cm
  The way you are in my company

      Cm
in my company
      Am        Ab
in my company
      Cm
in my company
      Am        Ab
in my company
      Cm             Cm
in my company  in my company
      Am        Ab
in my company

  Cm
I want it
  Cm
I love it
  Am
I need it
      Ab        Cm
Yes I do, yes I do, X3


      Ab        Cm
Yes I do, yes I do, (repeat this and fade out.)

At 03:49 play these notes too the very end
 Cm                Am                    Ab
[-----------------|---------------------|-----------------|
[-4---4---4---4---|-5---5---5---5---5---|-4---4---4---4---|
[---5---5---5---5-|---5---5---5---5---5-|---5---5---5---5-|
[-----------------|---------------------|-----------------|
[-----------------|---------------------|-----------------|
[-----------------|---------------------|-----------------|


Easy song and a cool one too. Enjoy................
Suggest correction
comments
print report bad tab
guest
You may want to rate the tab now too:
select rating
Wanna post a correction for this tab? Suggest correction