Oops, an error
Loading. Please wait.

Borderline Down chords

91 views 1 this week
2 commentsread comments
1 2 3 4 5
x 4
add to favorites
×
Save as Personal and add changes to this tab that will be seen only by you. Learn more ›
×
You can save this tab as Personal to edit and correct it or add notes. All changes will be seen only by you. Learn more »
launch autoscroll
font size
0
reset
transpose
0
reset
display chords
guitar tuner
edit
Autoscroll
slow
fast
+/-
esc
set tempo
stop
Strumming
There is no strumming pattern for this song yet. and get +5 IQ
https://www.youtube.com/watch?v=2GrRInyOL5o

[Intro]

Guitar 1 (Keyboard arranged for Guitar):
  Gm                          F
e-----------3-----3--5------|----------1-----------1--|
B---------3---3---------6---|-------------------------|
G-------3-------3-----------|-------2-----------2-----|
D-----5---------------------|-----3-----------3-------|
A---------------------------|-------------------------|
E--3------------------------|-1------------1----------| 

  Gm                          F
e-----------3-----3--5------|----------1-----------1--|
B---------3---3---------6---|-------------------------|
G-------3-------3-----------|-------2-----------2-----|
D-----5---------------------|-----3-----------3-------|
A---------------------------|-------------------------|
E--3------------------------|-1------------1----------|

Guitar 2 (Guitar 1 continues):
   Gm                       F
e------------------------|-----------------------|
B-------6--8-8-8-6---s8--|---6----8----6---------|
G---5h7------------7-----|-----7-----------------|
D------------------------|-----------------------|
A------------------------|-----------------------|
E------------------------|-----------------------|

   Gm                       F
e------------------------|-----------------------|-----------|
B-------6--8-8-8-6---s8--|---6----8----6---------|-----------|
G---5h7------------7-----|-----7-----------------|----3-5s7--|
D------------------------|-----------------------|--5--------|
A------------------------|-----------------------|-----------|
E------------------------|-----------------------|-----------|


[Verse]
Gm             F        C
Runaway lovers far from home
Gm                   F
Shadows were growin' long
Gm               F        C
Somebody buskin' somebody leavin'
        Gm         F       
For the borderline tonight

   Gm                       F
e------------------------|-----------------------|-----------|
B-------6--8-8-8-6---s8--|---6----8----6---------|--6--6-----|
G---5h7------------7-----|-----7-----------------|--5--5--7--|
D------------------------|-----------------------|-----------|
A------------------------|-----------------------|-----------|
E------------------------|-----------------------|-----------|

Gm                F          C        
Donna was burnin' for a look around
Gm                 F
Forgettin' Chicago now
Gm                     F        C
And as the night cooled safe and sound
Gm          Bb  F          C
Oh, layin' in each other's arms


[Chorus]
F               Bb          F
Borderline down all the way round
        Bb     F   Gm  F   C 
Now the leaves are turnin' brown
F                 Bb         F
All the way round borderline down
        Bb     F   Gm  F   C    F
How the leaves are leavin' town

   Gm                       F
e------------------------|-----------------------|
B-------6--8-8-8-6---s8--|---6----8----6---------|
G---5h7------------7-----|-----7-----------------|
D------------------------|-----------------------|
A------------------------|-----------------------|
E------------------------|-----------------------|

   Gm                       F
e------------------------|-----------------------|-3-5-3s1-1-|
B-------6--8-8-8-6---s8--|---6----8----6---------|-----------|
G---5h7------------7-----|-----7-----------------|-----------|
D------------------------|-----------------------|-----------|
A------------------------|-----------------------|-----------|
E------------------------|-----------------------|-----------|


[Verse]
Gm                 F         C
Summer was leavin', where to go
Gm                F
Dawn was wakin'up the town
Gm             F        C
Runaway lovers far from home
Gm                Bb         F      C
They were chasin' the indian summer breeze


[Chorus]
F               Bb          F
Borderline down all the way round
        Bb     F   Gm  F   C 
Now the leaves are turnin' brown
F                 Bb         F
All the way round borderline down
        Bb     F   Gm  F   C   
Now the leaves are leavin' town
           F
Borderline down


[Solo]
F Bb F Bb F Gm F C


[Outro]
F               Bb          F
Borderline down all the way round
        Bb     F   Gm  F   C 
Now the leaves are turnin' brown
F                 Bb         F
All the way round borderline down
        Bb     F   Gm  F   C   
How the leaves are leavin' town
F               Bb          F
Borderline down all the way round
        Bb     F   Gm  F   C 
Now the leaves are turnin' brown

            
            
Suggest correction
Creating personal tab
Creating personal tab
You can edit any tab online and save it as your Personal.

You can edit, replace or remove any tab part or add personal notes – all changes will be seen only by you.

Personal tabs can be accessed anytime from any device, even offline.
Learn more »
comments
print report bad tab
2 comments total.
+1 reply
guillermopeitto 10,617 Aug 06, 2016 12:19 PM

Wow, what a great song, great work too

0 reply
schoben 3,352 Aug 06, 2016 12:33 PM

yeah Guille I try to do my best!!

guest
You may want to rate the tab now too:
select rating
Wanna post a correction for this tab? Suggest correction