Oops, an error
Loading. Please wait.

No Sweat chords

34 views 1 this week
no commentswrite comment
1 2 3 4 5
2 more votes to show rating
add to favorites
×
Save as Personal and add changes to this tab that will be seen only by you. Learn more ›
×
You can save this tab as Personal to edit and correct it or add notes. All changes will be seen only by you. Learn more »
launch autoscroll
font size
0
reset
transpose
0
reset
display chords
guitar tuner
edit
Autoscroll
slow
fast
+/-
esc
set tempo
stop
Strumming
There is no strumming pattern for this song yet. and get +5 IQ
https://www.youtube.com/watch?v=c3A5OWm3NU0

Capo 1

[Intro]

A E A E

  A                 E
e--4-5-4----------------------|
B--------7-5---5---5-7-7s9-7--|
G------------6---6------------|
D-----------------------------|
A-----------------------------|
E-----------------------------|
  A                E      |Rake----|
e--4-5-4-------------------------7-|
B--------7-5---5-5s7-4---------7---|
G------------6---------4-----4-----|
D--------------------------4-------|
A----------------------------------|
E----------------------------------|

[Verse]
A
Maybe I will blow it all 
              E
And watch the grass grow.
A                               E
I will never get somewhere this way.
A             
Shifting piles of work around,
        E
I let my phone ring. 
  A            E
I need a break today. 


  A                 E
e--4-5-4------------------------------|
B--------7-5---5---5-7-7s9-7--5h7p5---|
G------------6---6------------------6-|
D-------------------------------------|
A-------------------------------------|
E-------------------------------------|
  A                   E      
e--4-5-4-------------------------------|
B--------7-5---5-5s7-4---------5-4-----|
G------------6---------4-----4-----6-4-|
D--------------------------4-----------|
A--------------------------------------|
E--------------------------------------|

[Verse]
A
Everything I seem to do, 
        E
In slow motion. 
A                             E
So I'm gonna keep my drive on hold 


[Chorus]
    A         E
And No sweat, no sweat
A         E
No sweat, no sweat 
A          E
No sweat, today's the day, 
A
No sweat 
   E               
Allright, allright, allright 


F#m E F#m E
A E A E



[Verse]
A                                        E
Feeling I should call and say how much I love you. 
A                                  E
But even that would be too much to say. 
      A                                E
Maybe I will hit the sack and let this day go. 
  A                     E
I say   tomorrow wait a while 


[Chorus]
A         E
No sweat, no sweat
A         E
No sweat, no sweat 
A          E
No sweat, today's the day, 
A
No sweat 
   E               
Allright, allright, allright 
A
No sweat, 
 E
today's the day,
A          E 
No sweat, today's the day, 
A
No sweat 

E

A
No sweat, 
 E
today's the day,

A E A E

A
No sweat, 
 E
today's the day,
A
No sweat,

E

A
No sweat, 
 E
today's the day,
A
No sweat, 
 E
today's the day,

            
            
Suggest correction
Creating personal tab
Creating personal tab
You can edit any tab online and save it as your Personal.

You can edit, replace or remove any tab part or add personal notes – all changes will be seen only by you.

Personal tabs can be accessed anytime from any device, even offline.
Learn more »
Give kudos to tab author, rate the tab!
1 2 3 4 5
comments
print report bad tab
guest
You may want to rate the tab now too:
select rating
Wanna post a correction for this tab? Suggest correction