Oops, an error
Loading. Please wait.

A Groovy Kind Of Love Tab

version 1
version 1

Whole song

Interactive

11,206 views 24 this week
no commentswrite comment
1 2 3 4 5
excellent!
x 3
add to favorites
launch autoscroll
font size
0
reset
how to read this tab
guitar tuner
Autoscroll
slow
fast
+/-
esc
set tempo
stop
Help us to improve Ultimate-Guitar.com Take our survey!
×
Author
Difficulty
barney06 623
novice
A Groovy Kind Of Love - Phill Collins
 
  G                 D
|-------------------------------||
|-12----10----12----7-----7----o||
|-12----------------7-----7-----||
|-12----------------7-----7-----|| 2x
|-10----------------5-----5----o||
|-------------------------------||

                 G                  D
When I'm feeling blue, all I have to do
                  G                   C
Is take a look at you, then I'm not so blue
                     Em                 D
When you're close to me, I can feel your heartbeat
               C               D
I can hear you breathing in my ear
              G                  D                       G    D
Wouldn't you agree, baby you and me got a groovy kind of love

            G                       D
Anytime you want to you can turn me onto
             G                   C
Anything you want to, anytime at all
                 Em                  D                    
When I kiss your lips, ooh I start to shiver
                  C           D
Can't control the quivering inside
             G                   D                       G        D
Wouldn't you agree, baby you and me got a groovy kind of love, oh
  A                E                       A
|-----------|--------------|-------------|-0---------|
|-2----0----|-2----0--0----|-------2--3--|-2--2---2h3|
|-2---------|------1--1----|-2--4--------|-2---------|
|-2---------|------2--2----|-------------|-2---------|
|-0---------|------2--2----|-------------|-0---------|
|-----------|------0-------|-------------|-----------|

           E                         A
|-----------------|-------------|----0----|
|-2--0-----0------|-------------|----2----|
|-------2--1------|-1h2p1-------|-1--2-2--|
|----------2------|----------4--|----2----|
|----------2------|-------------|----0----|
|----------0------|-------------|---------|

		D                    #Fmin
|-------------|-2-2----0--|----------2----|
|-------------|-3---------|-3--2--0--2----|
|-4--2--1--2--|-2---------|----------2----|
|-------------|-0---------|----------4----|
|-------------|-0---------|----------4----|
|-------------|-----------|---------------|

		   E           D           E
|-2--0--------|----0----0----|-2---------|-0----|
|-------3--2--|-0--0---------|-3----2----|-0----|
|-------------|----1---------|-2---------|-1----|
|-------------|----2---------|-----------|-2----|
|-------------|----2---------|-----------|-2----|
|-------------|----0---------|-----------|------|

                 A                  E
When I'm feeling blue, all I have to do
                  A                   D
Is take a look at you, then I'm not so blue
                 F#m                    E
When I'm in your arms, nothing seems to matter
                     D                E
My whole world could shatter, I don't care
              A                  E                      A 
Wouldn't you agree, baby you and me got a groovy kind of love
E                         A        
  We got a groovy kind of love
E                         A
  We got a groovy kind of love
E A
ooooh
E A
E                         A
  We got a groovy kind of love
Suggest correction
What's this?
You can suggest a correction to this tab. Community and Mods will review your correction and vote to approve or reject it.
comments
We did not receive enough feedback on this tab! Please rate:
print report bad tab
1 2 3 4 5
guest
You may want to rate the tab now too:
select rating
Please do not post tabs as comments. Select "correction" instead!