Oops, an error
Loading. Please wait.

Against All Odds Tab

version 1
version 1

Whole song

Interactive

5,711 views 9 this week
no commentswrite comment
1 2 3 4 5
please rate
add to favorites
launch autoscroll
font size
0
reset
how to read this tab
guitar tuner
Tab Pro tools
  • play this tab
  • loop segment
  • change instrument
  • show fretboard
  • metronome
×
Best way to learn
"Against All Odds"
Autoscroll
slow
fast
+/-
esc
set tempo
stop
Contributor
Difficulty
advanced
                              Against all odds                                  


Phil Collins



     Ab7sus4/Eb        Absus4        Ab                          
     S                                  S S S S E.  S S E  Q     
E||---------------------------------------------------4---------|
B||--4--------------------------------------7-L-6---4-----------|
G||--6------------------------------------3---------6---5--L----|
D||-------------------------------------6-----------6---6--L----|
A||--6----------------------------------------------------------|
E||-------------------------------------------------------------|


  Ab7sus4/Eb      Bb7sus4                       
  S                       S S S S E.  H         
-----------------------------------------------|
--4---------------------------7-L-6---4--------|
--6-------------------------3------------------|
--------------------------6-----------6--------|
--6--------------------------------------------|
--------------------------------------6--------|


    Bb7sus4 Bbm7 Cm7                     Db(add9) Ab7sus4 Ebm7                 
    Q                Q     Q     Q       Q                     Q    Q    Q     
|-------------------------------------|-----------------------------4----6----|
|---6----------------6-----8-----8----|--6---------------------6----7----7----|
|*--8----------------6-----8-----8----|--8---------------------8----6----6----|
|*--6----------------6----10----10----|--6---------------------6----6---------|
|-------------------------------------|--4---------------------4---------6----|
|---6----------------6-----6-----6----|---------------------------------------|


   Gb(add9)  Ab/Gb                   Fm7       Bbm7                 
  Q                Q    Q    Q       Q              Q    Q    Q     
--6----------------6----8----8----|--8--------------8--------------|
--9----------------9----9----9----|--9--------------9----6----6----|
--6----------------6----8----8----|--8--------------8----6----6----|
----------------------------------|----------------------6----6----|
--9----------------9----9----9----|--8--------------8--------------|
----------------------------------|----------------------6----6----|


  Ebm7     Ebm7/Bb                   Ab                     
  Q                Q    Q    Q       Q    Q    Q    Q       
--6----------------6----6----6----|-----------------------||
--7----------------7----7----7----|--4----4----4----4-----||
--6----------------6----6----6----|--5----5----5----5----*||
------------------------8----8----|--6----6----6----6----*||
--6----------------6----6----6----|-----------------------||
------------------------6----6----|--4----4----4----4-----||


  Ab7sus4  Ab                   Db/Ab                   Eb7/Ab                 
  Q           Q    Q    Q       Q     Q    Q    Q       Q      Q    Q    Q     
-----------------------------|-----------------------|--3------3----3----3----|
--4-----------4----4----4----|--7-----7----7----7----|--4------4----4----4----|
--6-----------6----5----5----|--6-----6----6----6----|--6------6----6----6----|
--6-----------6----6----6----|--6-----6----6----6----|------------------------|
-----------------------------|-----------------------|------------------------|
--4-----------4----4----4----|--4-----4----4----4----|--4------4----4----4----|


  Bbm7    Gb                   Ebm7   Absus4                 
  Q          Q    Q    Q       Q             Q    Q    Q     
-------------6----2----2----|--6-------------6----4----4----|
--6----------6----2----2----|--7-------------7----4----4----|
--6----------6----3----3----|--6-------------6----6----6----|
--6----------6----4----4----|-------------------------------|
----------------------------|--6-------------6--------------|
--6-------------------------|---------------------4----4----|


  Db/Ab                   Eb7/Ab                   Bbm7   Gb                 
  Q     Q    Q    Q       Q      Q    Q    Q       Q         Q    Q    Q     
-----------------------|--3------3----3----3----|------------6----2----2----|
--7-----7----7----7----|--4------4----4----4----|--6---------6----2----2----|
--6-----6----6----6----|--6------6----6----6----|--6---------6----3----3----|
--6-----6----6----6----|------------------------|--6---------6----4----4----|
-----------------------|------------------------|---------------------------|
--4-----4----4----4----|--4------4----4----4----|--6------------------------|


  Ebm7         Absus4                   Ab                   
  Q    Q       Q      Q    Q    Q       Q    Q    Q    Q     
------------|--9------9----9----9----|--8----8----8----8----|
--7----7----|--9------9----9----9----|--9----9----9----9----|
--6----6----|--8------8----8----8----|--8----8----8----8----|
--8----8----|--6------6----6----6----|--6----6----6----6----|
--6----6----|------------------------|----------------------|
------------|------------------------|----------------------|


  Bb7sus4 Bbm7 Cm7                     Db(add9) Ab7sus4 Ebm7                 
  Q                Q     Q     Q       Q                     Q    Q    Q     
------------------------------------|-----------------------------4----6----|
--6----------------6-----8-----8----|--6---------------------6----7----7----|
--8----------------6-----8-----8----|--8---------------------8----6----6----|
--6----------------6----10----10----|--6---------------------6----6---------|
------------------------------------|--4---------------------4---------6----|
--6----------------6-----6-----6----|---------------------------------------|


   Gb(add9)  Ab/Gb                   Fm7       Bbm7                 
  Q                Q    Q    Q       Q              Q    Q    Q     
--6----------------6----8----8----|--8--------------8--------------|
--9----------------9----9----9----|--9--------------9----6----6----|
--6----------------6----8----8----|--8--------------8----6----6----|
----------------------------------|----------------------6----6----|
--9----------------9----9----9----|--8--------------8--------------|
----------------------------------|----------------------6----6----|


  Ebm7     Ebm7/Bb                   Ab                   
  Q                Q    Q    Q       Q    Q    Q    Q     
--6----------------6----6----6----|----------------------|
--7----------------7----7----7----|--4----4----4----4----|
--6----------------6----6----6----|--5----5----5----5----|
------------------------8----8----|--6----6----6----6----|
--6----------------6----6----6----|----------------------|
------------------------6----6----|--4----4----4----4----|


    Ab7sus4  Ab                   Db/Ab                 
    Q           Q    Q    Q       Q     Q    Q    Q     
|------------------------------|-----------------------|
|---4-----------4----4----4----|--7-----7----7----7----|
|*--6-----------6----5----5----|--6-----6----6----6----|
|*--6-----------6----6----6----|--6-----6----6----6----|
|------------------------------|-----------------------|
|---4-----------4----4----4----|--4-----4----4----4----|


  Eb7/Ab                   Bbm7    Gb                 
  Q      Q    Q    Q       Q          Q    Q    Q     
--3------3----3----3----|-------------6----2----2----|
--4------4----4----4----|--6----------6----2----2----|
--6------6----6----6----|--6----------6----3----3----|
------------------------|--6----------6----4----4----|
------------------------|----------------------------|
--4------4----4----4----|--6-------------------------|


  Ebm7   Absus4                   Db/Ab                 
  Q             Q    Q    Q       Q     Q    Q    Q     
--6-------------6----4----4----|-----------------------|
--7-------------7----4----4----|--7-----7----7----7----|
--6-------------6----6----6----|--6-----6----6----6----|
-------------------------------|--6-----6----6----6----|
--6-------------6--------------|-----------------------|
---------------------4----4----|--4-----4----4----4----|


  Eb7/Ab                   Bbm7   Gb                   Ebm7         
  Q      Q    Q    Q       Q         Q    Q    Q       Q    Q       
--3------3----3----3----|------------6----2----2----|-------------||
--4------4----4----4----|--6---------6----2----2----|--7----7-----||
--6------6----6----6----|--6---------6----3----3----|--6----6----*||
------------------------|--6---------6----4----4----|--8----8----*||
------------------------|---------------------------|--6----6-----||
--4------4----4----4----|--6------------------------|-------------||


  Absus4                   Ab                
  Q      Q    Q    Q       W                 
--9------9----9----9----|-------------------|
--9------9----9----9----|--4----------------|
--8------8----8----8----|--5----------------|
--6------6----6----6----|--6----------------|
------------------------|-------------------|
------------------------|--4----------------|


  Ab7sus4/Eb                Absus4          Ab                          
  S                                            S S S S E.  S S E  Q     
-------------------------------------------------------------4---------|
--4------------------------------------------------7-L-6---4-----------|
--6----------------------------------------------3---------6---5--L----|
-----------------------------------------------6-----------6---6--L----|
--6--------------------------------------------------------------------|
-----------------------------------------------------------------------|


  Ab7sus4/Eb                Bb7sus4                       
  S                                 S S S S E.  H         
---------------------------------------------------------|
--4-------------------------------------7-L-6---4--------|
--6-----------------------------------3------------------|
------------------------------------6-----------6--------|
--6------------------------------------------------------|
------------------------------------------------6--------|


  Ab7sus4/Eb      Absus4         Bb7sus4                           
  S                                      S S S S E.  S S E  E  E   
-------------------------------------------------------4-------4--|
--4------------------------------------------7-L-6---4---4--4-----|
--6----------------------------------------3---------6------3-----|
-----------------------------------------6-----------6------6-----|
--6---------------------------------------------------------------|
------------------------------------------------------------------|


  Gb(add9) Ab                        
  H           H                      
-----------------------|-----------||
-----------------------|-----------||
--3-----------5--------|-----------||
--6-----------6--------|-----------||
-----------------------|-----------||
--2-----------4--------|-----------||




Duration Legend
---------------
W - whole
H - half
Q - quarter
E - 8th
S - 16th
T - 32nd
X - 64th
. - note dotted
|-n-|  - n-tuplets


Tablature Legend
----------------
L - tied note
x - dead note
g - grace note
(n) - ghost note
> - accentuded note
NH - natural harmonic
AH - artificial harmonic
TH - tapped harmonic
SH - semi harmonic
PH - pitch harmonic
h - hammer on
p - pull off
b - bend
br - bendRelease
pb - preBend
pbr - preBendRelease
brb - bendReleaseBend
\n/ - tremolo bar dip
\n - tremolo bar dive
-/n - tremolo bar Release up
/n\ - tremolo bar inverted dip
/n - tremolo bar return
-\n - tremolo bar Release down
S - shift slide
s - legato slide
/ -  slide into from below or out of upwards
\ -  slide into from above or out of downwards
~ - vibrato
W - wide vibrato
tr - trill
TP - tremolo picking
T - tapping
S - slap
P - pop
< - fade in
^ - brush up
v - brush down
comments
We did not receive enough feedback on this tab! Please rate:
print report bad tab
1 2 3 4 5
I want to post or [tab]
guest
You may want to rate the tab now too:
select rating
Please do not post tabs as comments. Select "correction" instead!