Oops, an error
Loading. Please wait.

Another Day In Paradise Bass Tab

version 1
version 1

Whole song

Interactive

17,489 views 30 this week
2 commentsread comments
1 2 3 4 5
x 8
add to favorites
launch autoscroll
font size
0
reset
guitar tuner
Autoscroll
slow
fast
+/-
esc
set tempo
stop
Help us to improve Ultimate-Guitar.com Take our survey!
×
PHIL COLLINS - "Another Day In Paradise" - Bass Tab

Common Time(4/4)
Standard Tuning(EADG)

INTRO/PRE-VERSE/END:
|---------/3-|-------3-1-0-|--------/3-|------/3-3--|
|*-3---3-3---|-1---1-------|-3---3-3---|-1---1-----*|
|*-----------|-------------|-----------|-----------*|
|------------|-------------|-----------|------------|
   1 2 & 3 4   1 2 & 3 4 &   1 2 & 3 4   1 2 & 3 4

VERSES 1 & 2:
|------------|---------|-----------|-------------|-----------|
|*-3---3-3---|-1-------|-3---3-3---|-1-----6-5-1-|-3---3-3---|
|*-----------|-----1---|-----------|-------------|-----------|
|------------|---------|-----------|-------------|-----------|
   1 2 & 3 4   1 2 3 4   1 2 & 3 4   1 2 3 & 4 &   1 2 & 3 4
                        _____            _____
                       |1.              |2.
|---------|-----------|----------------|-----------|
|-1-------|-3---3-3---|-------------5-*|-----------|
|-----1---|-----------|-6-----6-6-6---*|-6---6-6/1-|
|---------|-----------|----------------|-----------|
  1 2 3 4   1 2 & 3 4   1 2 3 & a 4 &    1 2 3 & 4

CHORUS:
|---------7h9-|-------------7h9-|---------7h9-|-------------7h9-|
|-------------|---------8-8-----|-------------|---------8-8-----|
|-------------|-----------------|-------------|-----------------|
|-1---1-1-----|-1---1-1---------|-1---1-1-----|-1---1-1---------|
  1 2 & 3 4 &   1 2 & 3 & a 4 &   1 2 & 3 4 &   1 2 & 3 & a 4 &

|---------7h9-|-----------7h9-|---------7h9-|---------|
|-------------|---------8-----|-------------|-1-3-1---|
|-------------|---------------|-------------|-------4-|
|-1---1-1-----|-1---1-1-------|-1---1-1-----|---------|
  1 2 & 3 4 &   1 2 & 3 & 4 &   1 2 & 3 4 &   1 2 3 4

MIDDLE:
|-----------------|-----------------|-----------------|
|-5-5-5-5-5-5-5-5-|-3-3-3-3-3-3-3-3-|-----------------|
|-----------------|-----------------|-6-6-6-6-6-6-6-6-|
|-----------------|-----------------|-----------------|
  1 & 2 & 3 & 4 &   1 & 2 & 3 & 4 &   1 & 2 & 3 & 4 &

|-----------------|-----------------|-----------------|
|-----------------|-----------------|-----------------|
|-----------------|-----------------|-----------------|
|-4-4-4-4-4-4-4-4-|-3-3-3-3-3-3-3-3-|-1-1-1-1-1-1-1-1-|
  1 & 2 & 3 & 4 &   1 & 2 & 3 & 4 &   1 & 2 & 3 & 4 &

|-----------------|-----------------|-------------------------|
|-1-1-1-1-1-1-1-1-|-----------------|-------------------------|
|-----------------|-----------------|-------------------------|
|-----------------|-4-4-4-4-4-4-4-4/|-16-16-16-16-16-16-16-16-|
  1 & 2 & 3 & 4 &   1 & 2 & 3 & 4 &   1  &  2  &  3  &  4  &

VERSE 3:
|---------7h9-|-----------3-|-----------|-------------|
|-3---3-3-----|-1-------3---|-3---3-3---|-1-----6-5-1-|
|-------------|-----1-1-----|-----------|-------------|
|-------------|-------------|-----------|-------------|
  1 2 & 3 4 &   1 2 & 3 4 &   1 2 & 3 4   1 2 3 & 4 &

|---------7h9-|-------------|-----------|-----------|
|-3---3-3-----|-1-------3-1-|-3---3-3---|-1---1-1---|
|-------------|-----1-1-----|-----------|---------1-|
|-------------|-------------|-----------|-----------|
  1 2 & 3 4 &   1 2 & 3 4 &   1 2 & 3 4   1 2 3 & 4

By: Johari Taylor
E-mail: viking@powerup.com.au
More Bass Tabs: http://www.powerup.com.au/~viking/basstab.htm
Suggest correction
comments
print report bad tab
2 comments total.
-1 reply
tseminole19 10 Mar 28, 2002 12:00 AM

THIS IS WRONG

0 reply
rayurrea 62 Sep 08, 2011 01:42 PM

totally wrong mayt! you just copy paste this tab from tabspace

guest
You may want to rate the tab now too:
select rating
Wanna post a correction for this tab? Suggest correction