Oops, an error
Loading. Please wait.

Another Day In Paradise Tab

version 4
version 4

Interactive

24,481 views 81 this week
2 commentsread comments
1 2 3 4 5
worth learning
x 7
add to favorites
launch autoscroll
font size
0
reset
how to read this tab
guitar tuner
Tab Pro tools
  • play this tab
  • loop segment
  • change instrument
  • show fretboard
  • metronome
×
Best way to learn
"Another Day In Paradise"
Autoscroll
slow
fast
+/-
esc
set tempo
stop
here's my stab at it...

its pretty of long but its very striaght-forward

Let it ring   ~~~~
Harmonic      (12)
Slide          s
Play riff
along with
lyrics        ====

IMPORTANT!!!!: if the riff/chord is above the lyrics given, play it along with the lyrics.if it is below play it after the lyrics.

110-115 BPM
standard tuning
4/4 time

intro

E--0-----0--2------------|----0----------------------|
B-----2------------------|--------2------------------|
G------------------------|---------------------------|
D------------------------|--0---0--------------------|
A------------------------|---------------------------|
E------------------------|---------------------------|

E------------------------|----2~~~~~~~~~~~~~~~~~~~~~~-|
B--0-1h-0----------------|--2~~~~~~~~~~~~~~~~~~~~~~~~-|
G-----------2------------|----------------------------|
D------------4-----------|----------------------------|
A------------------------|----------------------------|
E------------------------|----------------------------|

chorus

|| E----0--5-------|---0-----2-------- ||
||.B---------2-----|-----------2------.||
|| G-----------2---|-------------2---- ||Repeat 4x
|| D-4---4-------4-|-2--2-0---------0- ||
||.A---------------|------------------.||
|| E---------------|------------------ ||

Fm                   E          D
she calls out to the man in the street,

Fm           E
"sir can you help me".

Fm                 E           D
"Its cold and i've no where to sleep"

Fm                          E
"is there somewhere you can tell me"

E-----0-----2--0---------|
B------------------------|
G------------------------|
D--2----2---------2-4----|
A------------------------|
E------------------------|

Fm             E            D
he walks on... Doesn't look back

Fm                   E
he pretends he can't hear her

E---9-7-9----------------|
B----------7-------------|
G------------------------|
D------------------------|
A------------------------|
E------------------------|

Fm                     E           D
Starts to wistle as he crosses the street

Fm                   E
(he)seems embarressed to be there


(pre-chorus riff)

OH!

E------------------------|
B--(7)~~~~~~~~~~~~~~~~~~~|
G------------------------|
D------------------------|
A------------------------|
E------------------------|

think twice

E--(12)~~~~~~~~~~~~~~~~~~|
B------------------------|
G------------------------|
D------------------------|
A------------------------|
E------------------------|

Cause its another day for you and me in paradise

E------------------------|
B--(12)~~~~~~~~~~~~~~~~~~|
G------------------------|
D------------------------|
A------------------------|
E------------------------|

OH!

E------------------------|
B--(7)~~~~~~~~~~~~~~~~~~~|
G------------------------|
D------------------------|
A------------------------|
E------------------------|

think twice

E--(12)~~~~~~~~~~~~~~~~~~|
B------------------------|
G------------------------|
D------------------------|
A------------------------|
E------------------------|

Cause its another day for you...

E------------------------|
B--(12)~~~~~~~~~~~~~~~~~~|
G------------------------|
D------------------------|
A------------------------|
E------------------------|

 you and me in par-a-dise
E------------------------|
B------------------------|
G-4------6------4--------|
D------------------7-4---|
A------------------------|
E------------------------|

(repeat chorus riff)


Fm                   E          D
she calls out to the man in the street,

E------------------------|
B--0-1-0-----------------|
G------------------------|
D------------------------|
A------------------------|
E------------------------|

Fm                    E
he can see she's been crying

E--2--0s2----2-----------|
B------------------------|
G------------------------|
D------------------------|
A------------------------|
E------------------------|


Fm                        E            D
she's got blisters on the soles of her feet


Fm                       E
she can't walk but she's trying

E----7--12---------------|
B--9---------------------|
G------------------------|
D------------------------|
A------------------------|
E------------------------|

(repeat pre-chorus riff)

(repeat chorus riff)

===================================
E----------------|-----------------|
B-0-0-0-0-0-0-0-0|-2-2-2-2-2-2-2-2-|
G-0-0-0-0-0-0-0-0|-2-2-2-2-2-2-2-2-| (muted)
D-1-1-1-1-1-1-1-1|-4-4-4-4-4-4-4-4-|
A----------------|-----------------|
E----------------|-----------------|
Oh lord
===================================
E----------------|-----------------|
B-0-0-0-0-0-0-0-0|-2-2-2-2-2-2-2-2-|
G-0-0-0-0-0-0-0-0|-2-2-2-2-2-2-2-2-| (muted)
D-1-1-1-1-1-1-1-1|-2-2-2-2-2-2-2-2-|
A----------------|-----------------|
E----------------|-----------------|
s'there thing more anyone, can do
==================================
E----------------|-----------------|
B-0-0-0-0-0-0-0-0|-2-2-2-2-2-2-2-2-|
G-0-0-0-0-0-0-0-0|-2-2-2-2-2-2-2-2-| (muted)
D-1-1-1-1-1-1-1-1|-4-4-4-4-4-4-4-4-|
A----------------|-----------------|
E----------------|-----------------|
Oh lord
====================================================
E----------------|---------------------------------|
B-0-0-0-0-0-0-0-0|-2-2-2-2-2-2-2-2-2-2-2-2-2-2-2-2-|
G-0-0-0-0-0-0-0-0|-2-2-2-2-2-2-2-2-2-2-2-2-2-2-2-2-|(muted)
D-1-1-1-1-1-1-1-1|-2-2-2-2-2-2-2-2-2-2-2-2-2-2-2-2-|
A----------------|---------------------------------|
E----------------|---------------------------------|
                    (gradually getting louder)
there must be something you can saaaaaaaaaaaay
===========================
E-------2----------------|
B------------------------|
G-2---2------------------|
D---4--------------------|
A------------------------|
E------------------------|
you can tell from the lines on her face

E--2---------------------|
B----2-------------------|
G------2-----------------|
D------------------------|
A------------------------|
E------------------------|
===========================
E-------2----------------|
B------------------------|
G-2---2------------------|
D---4--------------------|
A------------------------|
E------------------------|
you can see that she's been there

E------------------------|
B------------------------|
G------------------------|
D--7-5-4---4-------------|
A--------7---------------|
E------------------------|
===========================
E-------2----------------|
B------------------------|
G-2---2------------------|
D---4--------------------|
A------------------------|
E------------------------|
probably been moved on from ev-er-y place

E--2---------------------|
B----2-------------------|
G------2-----------------|
D------------------------|
A------------------------|
E------------------------|
===========================
E-------2----------------|
B------------------------|
G-2---2------------------|
D---4--------------------|
A------------------------|
E------------------------|
cause she didn't fit in there

E------9------------------|
B--1012-121012------------|
G--------------11---------|
D-------------------------|
A-------------------------|
E-------------------------|


(repeat pre-chorus riff)

(repeat chorus riff over and over until completely  faded out)
comments
print report bad tab
2 comments total.
-1 reply
Fouse wrote on June 13 2005, 12:00 am

Great, except every Fm should be F#m. Other than that perfect

0 reply
Pavlyk007 wrote on August 25 2009, 04:48 pm

Totally wrong man!

I want to post or [tab]
guest
You may want to rate the tab now too:
select rating
Please do not post tabs as comments. Select "correction" instead!