Oops, an error
Loading. Please wait.

Another Day In Paradise Tab

version 5
version 5

Solo

Interactive

8,815 views 69 this week
no commentswrite comment
1 2 3 4 5
worth learning
x 2
add to favorites
launch autoscroll
font size
0
reset
how to read this tab
guitar tuner
Tab Pro tools
  • play this tab
  • loop segment
  • change instrument
  • show fretboard
  • metronome
Autoscroll
slow
fast
+/-
esc
set tempo
stop
Contributor
Song Title: Another day in paradise
Artist/Band: Phil Collins
Album: Phil Collins...Hits, 1998

Tab by JC Rea(jcrp_21@hotmail.com)

Symbols:

h=hammer-on
p=pull-off
/=slide-up
\=slide-down
b=bend
r=release bend
[]=bend before picking
~=left hand vibrato
///=tremolo picking
()=let ring
Tr=Trill
x=Blocked string
<>= harmonics

Tuning:Standard


CHORDS:

- F#m:x44222
- EMaj:x22400
- AMaj:x77655
- DMaj:xx0232
- EMaj*:x76454 

INTRO:

E|------------|----------|
B|--5---5-(7)-|-----5----|
G|----6-------|-------6--|
D|------------|--/6------|
A|------------|----------|
E|------------|----------|

E|--------------------|
B|----------------7---|
G|--2/4-2-------6-----|
D|--------4-----------|
A|--------------------|
E|--------------------|

MAIN RIFF:

E|------0------0----0--|------0-------2------|
B|----2------2---------|----0-----------3----|
G|---------------------|------------------2--|
D|--4------4------4----|--2------2-0---------|
A|---------------------|---------------------|
E|---------------------|---------------------|

1st VERSE:

F#m                   E          D
"She calls out to the man in the street,

F#m           E
 'sir can you help me,
F#m                 E           D
 It's cold and i've no where to slee,

F#m                          E
 is there somewhere you can tell me?'

E|------0--2------------|
B|-----------3----------|
G|-------------2--------|
D|--2/4----------2--4---|
A|----------------------|
E|----------------------|

2nd VERSE:

F#m             E            D
"He walks on...Doesn't look back,

F#m                   E
 he pretends he can't hear her"

e|---9-7-9-------|
B|---------------|
G|---------------|
D|---------------|
A|---------------|
E|---------------|

F#m                     E           D
"Starts to wistle as he crosses the street,

F#m                   E
 Seems embarrassed to be there"

CHORUS:

" Oh!...  ...think twice,

e|--------|--<12>----|
B|--<7>---|----------|
G|--------|----------|
D|--------|----------|
A|--------|----------|
E|--------|----------|

  It's just another day for you and me in paradise"

e|----------------------------------------------------------|
B|------------------------------------------------<12>------|
G|----------------------------------------------------------|
D|----------------------------------------------------------|
A|-------------------------<9>------------------------------|
E|----------------------------------------------------------|

"Oh!...  ..think twice,

e|--------|--<12>----|
B|--<7>---|----------|
G|--------|----------|
D|--------|----------|
A|--------|----------|
E|--------|----------|

"It's just another day for you....you and me in paradise"

e|----------------------------------------------------|
B|----------------------------------------------------|
G|----------------------------------------------------|
D|-----------------------------------2----4---2---0---|
A|-------------------------<9>------------------------|
E|----------------------------------------------------|



(Repeat main riff)


3rd VERSE:

F#m                   E          D
s"he calls out to the man in the street,

e|--------------|
B|--------------|
G|--2/4--4--2---|
D|--------------|
A|--------------|
E|--------------|

F#m                    E
 "he can see she's been crying,

e|---------------|
B|--5/7--5--7----|
G|---------------|
D|---------------|
A|---------------|
E|---------------|


F#m                        E            D
"she's got blisters on the soles of her feet,


F#m                       E
"she can't walk but she's trying"

e|---------12-14---|
B|--9--10----------|
G|-----------------|
D|-----------------|
A|-----------------|
E|-----------------|

CHORUS:

" Oh!...  ...think twice,
e|--------|-------------------|
B|--<7>---|--------------5----|
G|--------|----------------6--|
D|--------|-----------/6------|
A|--------|-------------------|
E|--------|-------------------|



It's just another day for you and me in paradise"
e|----------------------------------------------------------|
B|------------------------------------------------<12>------|
G|----------------------------------------------------------|
D|----------------------------------------------------------|
A|-------------------------<9>------------------------------|
E|----------------------------------------------------------|

" Oh!...  ...think twice,
e|--------|-------------------|
B|--<7>---|--------------5----|
G|--------|----------------6--|
D|--------|-----------/6------|
A|--------|-------------------|
E|--------|-------------------|


"It's just another day for you......you and me in paradise"
e|----------------------------------------------------|
B|----------------------------------------------------|
G|----------------------------------------------------|
D|-----------------------------------2----4---2---0---|
A|-------------------------<9>------------------------|
E|----------------------------------------------------|



(Repeat main riff)

BRIDGE:


EMaj*        F#m
    "Oh Lord,


    "is'there thing more anybody, can do?"



   "Oh Lord,



    "there must be something you can say"


4th VERSE:


"You can tell from the lines on her face,
e|-----------------------------------2---------------------|
B|-------------------------------------3-------------------|
G|---------------------------------------2-----------------|
D|-----------------------------------------4---------------|
A|---------------------------------------------------------|
E|---------------------------------------------------------|


"you can see that she's been there,
e|------------------------------------------------2--|
B|---------------------------------------------------|
G|--------------------------------1/2--1-------------|
D|----------------------------------------4--2-4-----|
A|---------------------------------------------------|
E|---------------------------------------------------|


"probably been moved on from ev-er-y place,
e|---------------------------------------2-------2-----|
B|-----------------------------------------3-----------|
G|-------------------------------------------2---------|
D|---------------------------------------------4-------|
A|-----------------------------------------------------|
E|-----------------------------------------------------|


"cause she didn't fit in there..."
e|----------------------------------9----------------|
B|----------------------------10-12---12-10-12-------|
G|---------------------------------------------11----|
D|---------------------------------------------------|
A|---------------------------------------------------|
E|---------------------------------------------------|


Then just repeat chorus part and main riff.

That's it!


Comments:jcrp_21@hotmail.com
comments
We did not receive enough feedback on this tab! Please rate:
print report bad tab
1 2 3 4 5
I want to post or [tab]
guest
You may want to rate the tab now too:
select rating
Please do not post tabs as comments. Select "correction" instead!