Oops, an error
Loading. Please wait.

Another Day In Paradise tab

version 6
version 6

Interactive

640 views 3 this week
no commentswrite comment
1 2 3 4 5
3 more votes to show rating
add to favorites
×
Save as Personal and add changes to this tab that will be seen only by you. Learn more ›
×
You can save this tab as Personal to edit and correct it or add notes. All changes will be seen only by you. Learn more »
launch autoscroll
font size
0
reset
how to read this tab
guitar tuner
edit
Autoscroll
slow
fast
+/-
esc
set tempo
stop
Author
Difficulty
Capo on one.
Song is in Fm so capo on one makes it much, much easier.
Everything relative to capo - enjoy!

Chords
Em7   022033
  D   x00232 (that's the way it's played here. Can also play Dsus2)
  C   x32010
Cadd9 x32033

Intro tab (relative to capo remember!)

(very quiet - only on album version of song. Skip if you want)

e|-----------------------------------------------0---------------------------|
B|-------3p0-------------3-------------------3-------------------------------|
G|-------------------0--------2-----2h4p2p0----------------------------------|
D|---------------------------------------------------------------------------|
A|---------------------------------------------------------------------------|
E|---------------------------------------------------------------------------|

(intro riff everyone knows. REPEAT)

e|----3-----3--5---3---2-0----0-------3-----3--5---3---2-0----0--------------|
B|--------------------------3------------------------------------3---1-------|
G|---------------------------------------------------------------------------|
D|---------------------------------------------------------------------------|
A|---------------------------------------------------------------------------|
E|---------------------------------------------------------------------------|

Verse

She calls out to a  man on the street
   Em7              D         C
e|-----------------------------------|
B|-----------------------------------|
G|--0-----0-0-------2--2------0------|
D|--2-----2-2-------0--0------2------|
A|--2-----2-2-------0--0------3------|
E|-----------------------------------|

"Sir can you help me?
   Em7              D         
e|--------------------|
B|--------------------|
G|--0-----0-0-------2-|
D|--2-----2-2-------0-|
A|--2-----2-2-------0-|
E|--------------------|

 It's cold and I've nowhere to sleep,
   Em7              D         C
e|-----------------------------------|
B|-----------------------------------|
G|--0-----0-0-------2--2------0------|
D|--2-----2-2-------0--0------2------|
A|--2-----2-2-------0--0------3------|
E|-----------------------------------|

is there somewhere you can tell me?"
   Em7              D         Dsus2       Em7
e|-------------------------------0---------------|
B|-----------------------------3----3------------|
G|--0-----0-0-------2------------------2---------|
D|--2-----2-2-------0---------------------0--2---|
A|--2-----2-2-------0----------------------------|
E|-----------------------------------------------|

 He walks on, doesn't look back.
   Em7              D         C
e|-----------------------------------|
B|-----------------------------------|
G|--0-----0-0-------2--2------0------|
D|--2-----2-2-------0--0------2------|
A|--2-----2-2-------0--0------3------|
E|-----------------------------------|

He pretends he can't hear her.
   Em7              D         
e|---------------------------------7--5--7------0--|
B|-------------------------------------------3-----|
G|--0-----0-0-------2------------------------------|
D|--2-----2-2-------0------------------------------|
A|--2-----2-2-------0------------------------------|
E|-------------------------------------------------|

Starts to whistle as he crosses the street,
   Em7                D         C
e|-------------------------------------|
B|-------------------------------------|
G|--0-----0-0---------2--2------0------|
D|--2-----2-2---------0--0------2------|
A|--2-----2-2---------0--0------3------|
E|-------------------------------------|

seems embarrassed to be there.
   Em7              D         
e|--------------------|
B|--------------------|
G|--0-----0-0-------2-|
D|--2-----2-2-------0-|
A|--2-----2-2-------0-|
E|--------------------|

Chorus

Oh,               think twice, 'cause it's
   Em7                D          
e|----------12---------------10------------|
B|--3----12-----------3---10---------------|
G|--0-----------------2--------------------|
D|--2-----------------0--------------------|
A|--2-----------------0--------------------|
E|-----------------------------------------|

another day for you and me in paradise.
  Cadd9             D
e|----------7----------------5-------------|
B|--3----8------------3---5----------------|
G|--0-----------------2--------------------|
D|--2-----------------0--------------------|
A|--3-----------------0--------------------|
E|-----------------------------------------|

Oh,               think twice, it's just
   Em7                D         
e|----------12---------------10------------|
B|--3----12-----------3---10---------------|
G|--0-----------------2--------------------|
D|--2-----------------0--------------------|
A|--2-----------------0--------------------|
E|-----------------------------------------|

another day for you, you and me in paradise .
  Cadd9               D        C
e|----------7------------------------------|
B|--3----8------------3--------1-----------|
G|--0-----------------2--------0-----------|
D|--2-----------------0--------2-----------|
A|--3-----------------0--------3-----------|
E|-----------------------------------------|

                                                             Think about it.

e|----3-----3--5---3---2-0----0-------3-----3--5---3---2-0----0--------------|
B|--------------------------3------------------------------------3---1-------|
G|---------------------------------------------------------------------------| X2
D|---------------------------------------------------------------------------|
A|---------------------------------------------------------------------------|
E|---------------------------------------------------------------------------|

Verse

She calls out to a  man on the street,
   Em7              D         C
e|------------------------------------------|
B|------------------------------------------|
G|--0-----0-0-------2--2------0---2hp4h2----|
D|--2-----2-2-------0--0------2-----------2-|
A|--2-----2-2-------0--0------3-------------|
E|------------------------------------------|

he can see she's been crying.
  Em7              D         
e|--------------------------|
B|--------------------5-0/5-|
G|--0-----0-0-------2-------|
D|--2-----2-2-------0-------|
A|--2-----2-2-------0-------|
E|--------------------------|

She's got blisters on the soles of her feet
   Em7                D         C
e|-------------------------------------|
B|-------------------------------------|
G|--0-----0-0---------2--2------0------|
D|--2-----2-2---------0--0------2------|
A|--2-----2-2---------0--0------3------|
E|-------------------------------------|

she can't walk but she's trying.
  Em7              D         
e|------------------------5--10--|
B|---------------------7---------|
G|--0-----0-0-------2------------|
D|--2-----2-2-------0------------|
A|--2-----2-2-------0------------|
E|-------------------------------|

Chorus

Oh,               think twice, 'cause it's
   Em7                D          
e|----------12---------------10------------|
B|--3----12-----------3---10---------------|
G|--0-----------------2--------------------|
D|--2-----------------0--------------------|
A|--2-----------------0--------------------|
E|-----------------------------------------|

another day for you and me in paradise.
  Cadd9             D
e|----------7----------------5-------------|
B|--3----8------------3---5----------------|
G|--0-----------------2--------------------|
D|--2-----------------0--------------------|
A|--3-----------------0--------------------|
E|-----------------------------------------|

Oh,               think twice, it's just
   Em7                D         
e|----------12---------------10------------|
B|--3----12-----------3---10---------------|
G|--0-----------------2--------------------|
D|--2-----------------0--------------------|
A|--2-----------------0--------------------|
E|-----------------------------------------|

another day for you, you and me in paradise .
  Cadd9               D        C
e|----------7------------------------------|
B|--3----8------------3--------1-----------|
G|--0-----------------2--------0-----------|
D|--2-----------------0--------2-----------|
A|--3-----------------0--------3-----------|
E|-----------------------------------------|

                                           Just think about it.

e|----3-----3--5---3---2-0----0-------3-----3--5---3---2-0----0--------------|
B|--------------------------3------------------------------------3---1-------|
G|---------------------------------------------------------------------------| X2
D|---------------------------------------------------------------------------|
A|---------------------------------------------------------------------------|
E|---------------------------------------------------------------------------|

Bridge

Oh Lord, is there nothing more anybody can do.
   G    Em7           D            Cadd9
e|---------------------------------------------|
B|-------3------------3------------3-----------|
G|--0----2------------2------------0-----------|
D|--0----2------------0------------2-----------|
A|--2----2------------0------------3-----------|
E|--3------------------------------------------|

Oh Lord, there must be something you can say.
   G    Em7           D            Cadd9
e|---------------------------------------------|
B|-------3------------3------------3-----------|
G|--0----2------------2------------0-----------|
D|--0----2------------0------------2-----------|
A|--2----2------------0------------3-----------|
E|--3------------------------------------------|

Verse

You can see from the lines in her face,
   Em7                D         C
e|----------------------------------0--------|
B|-------------------------------------------|
G|--0-----0-0---------2--2------0-----2--0---|
D|--2-----2-2---------0--0------2----------2-|
A|--2-----2-2---------0--0------3------------|
E|-------------------------------------------|

you can see that she's been there.
   Em7              D         
e|--------------------------------|
B|--------------------------------|
G|--0-----0-0-------2-------------|
D|--2-----2-2-------0-------------|
A|--2-----2-2-------0-------------|
E|--------------------------------|

           Probably been moved on from every place
            Em7                D         C
e|-------------------------------------------0--------|
B|----------------------------------------------------|
G|-5-4-2-0-2-0-----0-0---------2--2------0-----2--0---|
D|-----------2-----2-2---------0--0------2----------2-|
A|-----------2-----2-2---------0--0------3------------|
E|----------------------------------------------------|

'Cause she didn't fit in there
   Em7              D         
e|--------------------------------|
B|--------------------------------|
G|--0-----0-0-------2-------------|
D|--2-----2-2-------0-------------|
A|--2-----2-2-------0-------------|
E|--------------------------------|
          
Chorus

Oh,               think twice, 'cause it's
   Em7                D          
e|----------12---------------10------------|
B|--3----12-----------3---10---------------|
G|--0-----------------2--------------------|
D|--2-----------------0--------------------|
A|--2-----------------0--------------------|
E|-----------------------------------------|

another day for you and me in paradise.
  Cadd9             D
e|----------7----------------5-------------|
B|--3----8------------3---5----------------|
G|--0-----------------2--------------------|
D|--2-----------------0--------------------|
A|--3-----------------0--------------------|
E|-----------------------------------------|

Oh,               think twice, it's just
   Em7                D         
e|----------12---------------10------------|
B|--3----12-----------3---10---------------|
G|--0-----------------2--------------------|
D|--2-----------------0--------------------|
A|--2-----------------0--------------------|
E|-----------------------------------------|

another day for you, you and me in paradise .
  Cadd9               D        C
e|----------7------------------------------|
B|--3----8------------3--------1-----------|
G|--0-----------------2--------0-----------|
D|--2-----------------0--------2-----------|
A|--3-----------------0--------3-----------|
E|-----------------------------------------|

                                 Just think about it.           Mm-hm.

e|----3-----3--5---3---2-0----0-------3-----3--5---3---2-0----0--------------|
B|--------------------------3------------------------------------3---1-------|
G|---------------------------------------------------------------------------|
D|---------------------------------------------------------------------------|
A|---------------------------------------------------------------------------|
E|---------------------------------------------------------------------------|

                         Think about it.                                                      

e|----3-----3--5---3---2-0----0-------3-----3--5---3---2-0----0--------------|
B|--------------------------3------------------------------------3---1-------|
G|---------------------------------------------------------------------------|
D|---------------------------------------------------------------------------|
A|---------------------------------------------------------------------------|
E|---------------------------------------------------------------------------|

  It's just another day for you and me in paradise. (x2)

e|----3-----3--5---3---2-0----0-------3-----3--5---3---2-0----0--------------|
B|--------------------------3------------------------------------3---1-------|
G|---------------------------------------------------------------------------|
D|---------------------------------------------------------------------------|
A|---------------------------------------------------------------------------|
E|---------------------------------------------------------------------------|

   Paradise.                   Oh just think about it.                                   

e|----3-----3--5---3---2-0----0-------3-----3--5---3---2-0----0--------------|
B|--------------------------3------------------------------------3---1-------|
G|---------------------------------------------------------------------------|
D|---------------------------------------------------------------------------|
A|---------------------------------------------------------------------------|
E|---------------------------------------------------------------------------|

   Paradise.                   Just think about it.       (Repeat to end)                            

e|----3-----3--5---3---2-0----0-------3-----3--5---3---2-0----0--------------|
B|--------------------------3------------------------------------3---1-------|
G|---------------------------------------------------------------------------|
D|---------------------------------------------------------------------------|
A|---------------------------------------------------------------------------|
E|---------------------------------------------------------------------------| 

Hope this sounds mostly right!
************************************

| /   slide up
| \   slide down
| h   hammer-on
| p   pull-off
| ~   vibrato
| +   harmonic
| x   Mute note
| b   Bend
| pb  Pre-bend
| br  Bend release
| pbr Pre-bend release
| brb Bend release bend

************************************
Suggest correction
Creating personal tab
Creating personal tab
You can edit any tab online and save it as your Personal.

You can edit, replace or remove any tab part or add personal notes – all changes will be seen only by you.

Personal tabs can be accessed anytime from any device, even offline.
Learn more »
Give kudos to tab author, rate the tab!
1 2 3 4 5
comments
print report bad tab
guest
You may want to rate the tab now too:
select rating
Wanna post a correction for this tab? Suggest correction