Oops, an error
Loading. Please wait.

Easy Lover Bass Tab

version 1
version 1

Whole song

Interactive

21,038 views 24 this week
no commentswrite comment
1 2 3 4 5
x 8
add to favorites
launch autoscroll
font size
0
reset
guitar tuner
Autoscroll
slow
fast
+/-
esc
set tempo
stop
Help us to improve Ultimate-Guitar.com Take our survey!
×
PHIL COLLINS - "Easy Lover" - Bass Tab

Common Time(4/4)
Standard Tuning(EADG)

INTRO:
|---------|---------|---------|---------|---------|---------|
|---------|---------|---------|---------|---------|---------|
|---------|---------|---------|---------|---------|---------|
|-2-------|-------2-|-1-------|---------|-2-------|-------2-|
  1 2 3 4   1 2 3 4   1 2 3 4   1 2 3 4   1 2 3 4   1 2 3 4

|---------|-----------|------------------|-----------|
|---------|-----1-----|*-3---3-1---3-----|-----------|
|---------|-4---------|*---------4---4-3-|-1---3-----|
|-1-------|-----------|------------------|-----------|
  1 2 3 4   1 2 & 3 4    1 & a 2 & 3 4 &   1 2 & 3 4

                         (x2)
|---------------|------------|
|-3---3-1---3---|-----1-----*|
|---------4-----|-4---------*|
|---------------|------------|
  1 & a 2 & 3 4   1 2 & 3 4

CHORUS/SOLO:
|------------------|-----------|---------------|------------|
|*-3---3-1---3-----|-----------|-3---3-1---3---|-----1-----*|
|*---------4---4-3-|-1---3-----|---------4-----|-4---------*| (x3)
|------------------|-----------|---------------|------------|
   1 & a 2 & 3 4 &   1 2 & 3 4   1 & a 2 & 3 4   1 2 & 3 4

|-----------------|-----------|---------|
|-3---3-1---3-----|-----------|---------|
|---------4-------|-1---3-----|---------|
|-------------1-3-|-----------|-1-------|
  1 & a 2 & 3 4 &   1 2 & 3 4   1 2 3 4

VERSES:
|------------|-----------|-----------|-----------|-----------------|
|*-.-----.---|-.---.---.-|-.-----.---|-.---.---.-|-3---3-1---3---1-|
|*-4---3-4---|-4---4---3-|-4---3-4---|-4---4---3-|---------4-------|
|------------|-----------|-----------|-----------|-----------------|
   1 2 & 3 4   1 2 & 3 4   1 2 & 3 4   1 2 & 3 4   1 & a 2 & 3 4 &
                              _____        _____
                             |1st         |2nd
|-----------|---------------|------------|-------------|
|-3---3---1-|-3---3-1---3---|-3---3-----*|-3---3-------|
|-----------|---------4-----|---------3-*|---------4-3-|
|-----------|---------------|------------|-------------|
  1 2 & 3 4   1 & a 2 & 3 4   1 2 & 3 4    1 2 & 3 4 &

PRE-CHORUS:
|------------------|--------------------|---------|---------|
|*-----------------|---------3---3-----*|-4-------|---------|
|*-1-1-1-1-1-1-1-1-|-3-3-3-3-------4-3-*|---------|---------|
|------------------|--------------------|---------|---------|
   1 & 2 & 3 & 4 &   1 & 2 & 3 & a 4 &    1 2 3 4   1 2 3 4

|-----------|
|-----1-----|
|-4---------|
|-----------|
  1 2 & 3 4

PRE-SOLO:
                                    (x3)
|------------------|--------------------|---------|---------|
|*-----------------|---------3---3-----*|-4-------|-------4-|
|*-1-1-1-1-1-1-1-1-|-3-3-3-3-------4-3-*|---------|---------|
|------------------|--------------------|---------|---------|
   1 & 2 & 3 & 4 &   1 & 2 & 3 & a 4 &    1 2 3 4   1 2 3 4

|---------|---------|---------|---------|---------|-----------|
|-3-------|---------|-4-------|-------4-|-3-------|-----1-----|
|---------|---------|---------|---------|---------|-4---------|
|---------|---------|---------|---------|---------|-----------|
  1 2 3 4   1 2 3 4   1 2 3 4   1 2 3 4   1 2 3 4   1 2 & 3 4

END:
                                               (to fade-out)
|------------------|-----------|---------------|------------|
|*-3---3-1---3-----|-----------|-3---3-1---3---|-----1-----*|
|*---------4---4-3-|-1---3-----|---------4-----|-4---------*|
|------------------|-----------|---------------|------------|
   1 & a 2 & 3 4 &   1 2 & 3 4   1 & a 2 & 3 4   1 2 & 3 4

By: Johari Taylor
E-mail: viking@powerup.com.au
More Bass Tabs: http://www.powerup.com.au/~viking/basstab.htm
Suggest correction
comments
print report bad tab
guest
You may want to rate the tab now too:
select rating
Wanna post a correction for this tab? Suggest correction