Oops, an error
Loading. Please wait.

Easy Lover Tab

version 1
version 1

Live

Whole song

Interactive

11,489 views 9 this week
no commentswrite comment
1 2 3 4 5
please rate
add to favorites
launch autoscroll
font size
0
reset
how to read this tab
guitar tuner
Autoscroll
slow
fast
+/-
esc
set tempo
stop
Help us to improve Ultimate-Guitar.com Take our survey!
×
Difficulty
intermediate
Tabbed by:Tony
Artist:Phil collins
Guitarist:Darryl Stuermer
From the 1990 Album Serious Hits Live...
Fast Rock=130
Difficulty:Mostly easy but the ascencion in the solo is pretty advanced

Intro:

 |-------|------|---|-----|-------------|
 |-------|------|---|-----|-------------|
 |-------|------|---|-----|---------9/--|
 |-------|------|---|-----|-5----7--9/--|
 |-3-----|-3-2--|-3-|-3-2-|-3----5--7/--|
 |-1-----|-1-0--|-1-|-1-0-|-------------|


 |-7-7-7/-|---------------|---------------------|
 |-8-8-8/-|---------------|---------------------|
 |--------|-9-9---------9-|-x-5--x--7-----------|
 |--------|-9-9---------9-|-x-5--x--7-----------|
 |--------|-7-7---------7-|-x-3--x--5-----------|
 |--------|------10--7----|---------------------|
 
 
 |-------7-7-7/-|------------|------------------|
 |-------8-8-8/-|------------|------------------|
 |-9/-----------|-9--------9-|-x-5--x--7--9/----|
 |-9/-----------|-9--------9-|-x-5--x--7--9/----|
 |-7/-----------|-7--------7-|-x-3--x--5--7/----|
 |--------------|---10--7----|------------------|

  (easy lover)                 (make you see)
 |-----------|---------------|------------------|
 |-----------|---------------|------------------|
 |-9-------9-|-x-5--x--7--9/-|------9-----------|
 |-9-------9-|-x-5--x--7--9/-|------9-----------|
 |-7-------7-|-x-3--x--5--7/-|------7-----------|
 |---10--7---|---------------|------------------|

 Verse                     
 |---------|-------------|-----|-----------------|
 |---------|-------------|-----|-----------------|
 |-5---4-5-|-5---5--4--5-|-4-5-|-5---5---7-------|
 |-5---4-5-|-5---5--4--5-|-4-5-|-5---5---5-------|
 |-3---2-3-|-3---3--2--3-|-2-3-|-3---3---5-------|
 |---------|-------------|-----|-----------------|


 |---------------------|-------|---------------------|-------|
 |---------------------|-------|---------------------|-------|
 |-9-9---------9--7--9-|-9--7--|--9-9--------9--7--9-|-9-7---|
 |-9-9---------9--7--9-|-9--7--|--9-9--------9--7--9-|-9-7---|
 |-7-7---------7--5--7-|-7--5--|--7-7--------7--5--7-|-7-5---|
 |------10--7----------|-------|-------10--7---------|-------|

 Pre chorus: 
 |-------------------|
 |----1---1---1---1--|
 |----0---0---0---0--|
 |---2---2---2---2---|
 |-------------------|
 |-------------------|
 
 
P.M----------------|

 |---------------|-------------------------------|
 |---3-----------|--1---1---1---1----3----3-5-5~-|
 |--2---/4-4-2-0~|--0---0---0---0---2--/4--------|
 |-4-------------|-2---2---2---2---4-------------|
 |---------------|-------------------------------|
 |---------------|-------------------------------|


 |------------------|----------------|-----------|
 |----1---1---1---1-|----3-----------|-----------|
 |----0---0---0---0-|---2--/4-4-2-0~-|-----5--7--|
 |---2---2---2---2--|--4-------------|-----5--7--|
 |------------------|----------------|-3---3--5--|
 |------------------|----------------|-1---------|
 

 |--------|------------|-------|------|-------|-------|
 |--------|------------|-------|------|-------|-------|
 |--------|------------|-------|------|-------|-5--7--|
 |-Chorus-|-Pre-Chorus-|-------|------|-------|-5--7--|
 |--------|------------|-3--2--|--3---|--3--2-|-3--5--|
 |--------|------------|-1--0--|--1---|--1--0-|-------|
 
                                         ~~~
 Guitar Solo:                            1/2           ~~~~
 |---------------------------------------------------10---------10-------|
 |-/12-12-12-12-12-12-----8--\10~----8--10b-10-8---8----10-10fb----10-8\-|
 |-/12-12-12-12-12-12---9----------9-------------9-----------------------|
 |-----------------------------------------------------------------------|
 |-----------------------------------------------------------------------|
 |-----------------------------------------------------------------------|

                                                                  1/2
 |-----7-x-x-7-x-x-7-7\----------------------7-x-x-7-x-x-10\---------------|
 |-----8-x-x-8-x-x-8-8\----------------------8-x-x-8-x-x-----8-10-10br-8-9-|
 |-----9-x-x-9-x-x-9-9\----------------------9-x-x-9-x-x----------------9--|
 |-/9--9-x-x-9-x-x-9-9----5-7~~5---5-----/9--9-x-x-9-x-x-------------------|
 |----------------------7--------7---7-------------------------------------|
 |-------------------------------------------------------------------------|

       (Fast)      1/2               1/2                          1/2
 |-7-----10p7----7------7----------|--------------------------------------
 |-10fb-------10---10br---10-8---8-|-10br(10)p8-------keep playing fast->-
 |-----------------------------9---|------------9-7--9fbr(9)p7------------
 |---------------------------------|---------------------------9-7-9br(9)-
 |---------------------------------|--------------------------------------
 |---------------------------------|--------------------------------------

              I have also written an alternate part below              ~~
  -----------|-------------------------------------------------------------|
  -----------|-----------------------7-8-10-10/12-10-8-12/13-13-12-10-13/15|
  ---------7-|----------------7-9-11---------------------------------------|
  -p7--10----|--------7-9-10-----------------------------------------------|
  -----------|-7-9-10------------------------------------------------------|
  -----------|-------------------------------------------------------------|

 Note* this part is optional,I prefere to play it this way. Starting
       from the scale above till end of solo
 |-----------------------------------------------------------------|
 |------------------7-8-7-10-8-7-11/12-10-8-12/13-12-10-/15~~------|
 |------------7-8-9------------------------------------------------|
 |--------7-9------------------------------------------------------|
 |-7-9-10----------------------------------------------------------|
 |-----------------------------------------------------------------|

 
 |-------12--12~--12-------------|-------------15---------------15-17-|
 |-12-15---15--------15-12---12~-|-------/12-15--15-17~-17~17~17------|
 |-------------------------14----|-9-12-------------------------------|
 |-------------------------------|------------------------------------|
 |-------------------------------|------------------------------------|
 |-------------------------------|------------------------------------|
 
 1/2------------|
 
 |-18b-18b-18b-18br(18)-17~~--|
 |----------------------------|
 |----------------------------|
 |----------------------------|
 |----------------------------|
 |----------------------------|
 
 Now this is the rest of the solo the regular way, it may not make any 
 sence.  
                                                         
 |------------12---------------------------------------------|
 |-12h15p15fb-----15p13p12------------12-15p12-15-15/17~~~~--|
 |-------------------------/16------12-----------------------|
 |--------------------------------14-------------------------|
 |-----------------------------------------------------------|
 |-----------------------------------------------------------|
                                                           (~)
 |----15-17---17fb-17fb-17fb-fb17-|-17fb-17fb-17fb-17fb--17--|
 |-17-----------------------------|--------------------------|
 |--------------------------------|--------------------------|
 |--------------------------------|--------------------------|
 |--------------------------------|--------------------------|
 |--------------------------------|--------------------------|
 
 |------------|--------|-------|---------------------|
 |-Pre Chorus-|-Chorus-|-------|-Chorus-x3-+ending---|
 |------------|--------|-5---7-|---------------------|
 |------------|--------|-5---7-|---------------------|
 |------------|--------|-3---5-|---------------------|
 |------------|--------|-------|---------------------|


 |-------|---------|----------|----------------------|
 |-------|---------|----------|----------------------|
 |-------|---------|--5--7----|--9--9---------9\-----|
 |-------|---------|--5--7----|--9--9---------9\-----|
 |-3-----|---3--2--|--3--5----|--7--7---------7\-----|
 |-1-----|---1--0--|----------|--------10--7---------|

 This is how me and my teacher play it, its stupid but rate it!




Suggest correction
Give kudos to tab author, rate the tab!
1 2 3 4 5
comments
print report bad tab
guest
You may want to rate the tab now too:
select rating
Wanna post a correction for this tab? Suggest correction