Oops, an error
Loading. Please wait.

Easy Lover Bass Tab

version 2
version 2

Whole song

Interactive

16,770 views 48 this week
2 commentsread comments
1 2 3 4 5
excellent!
x 10
add to favorites
launch autoscroll
font size
0
reset
guitar tuner
Tab Pro tools
  • play this tab
  • loop segment
  • change instrument
  • show fretboard
  • metronome
×
Best way to learn
"Easy Lover"
Autoscroll
slow
fast
+/-
esc
set tempo
stop
Contributor
Difficulty
intermediate
Song: Easy Lover
Artist: Phil Collins and Philip Bailey
Bassist: Nathan East
Album: Chinese Walls
Tempo: 130
Transcripted by Renata Jamberg

      Gb             Fm7                  Gb        Fm7 
G||--------|--------|--------|--------|--------|--------|
D||---4----|----4-3-|--------|--------|---4----|----4-3-|
A||--------|--------|--------|--------|--------|--------|
E||--------|--------|--------|--------|--------|--------|

   Db    Eb          Fm7           Bbm7Cm7        Fm7               Db   Eb
G|--------------||---------------|-------------|--------------|--------------||
D|------1---3---||º--3-1---3-----|-----------3-|--3-1---3-----|-----1----3--º||
A|-4------------||º------3---3-2-|-1---3-3-----|------3-----4-|-------------º||
E|--------------||---------------|-------------|--------------|--------------||

 "C" Fm7           Bbm7 Cm7        Fm7              Db   Eb
G||--------------|---------------|-------------|--------------|
D||--3-1---3-----|--------1---3--|-3-1---3-----|-----1----3---|
A||------3---3-2-|-1--3-3---3----|-----3-----4-|--------------|
E||--------------|---------------|-------------|--------------|

    Fm7           Bbm7 Cm7        Fm7               Db      Eb
G|---------------|-------------|--------------|--------------|
D|---3-1---3-----|-----------3-|--3-1---3-----|-----1----3---|
A|-------3---3-2-|-1---3-3-----|------3-----4-|--------------|
E|---------------|-------------|--------------|--------------|

     Fm7            Bbm7 Cm7        Fm7              Db    Eb
G|----------------|--------------|--------------|-------------|
D|---3-1---3------|-----------3--|--3-1---3-----|----1-----3--|
A|-------3--------|-1---3-3------|------3-----4-|-------------|
E|------------1-3-|--------------|--------------|-------------|

     fM7               Bbm7 Cm7          Fm7
G|-------------------|----------------|----------------|
D|---3-1---3---------|-------------3--|----------------|
A|-------3--------0--|-1----3-3-------|----------------|
E|--------------4----|----------------|----------------|

     Db
G||---------------|-------------|------------|-------------|
D||º--------------|-------------|------------|--------1--3-|
A||º-4----3-4-----|-4---4--3--4-|---3-4------|-4---4-------|
E||---------------|-------------|------------|-------------|

    Fm7                                \1.____________|
G|-----------|-------------|-----------|--------------||
D|º-31-3---1-|-3---3--1--3-|--31-3-----|-3---3-------º||
A|º---3------|-------------|----3------|--------3--4-º||
E|-----------|-------------|-----------|--------------||

   Fm7           Bbm7          Cm7      Fm7      Bbm7          Cm7      Fm7
 \2.___________| "B"
G|-------------|-------------|----------------|--------------|----------------|
D|-3---3-------|-------------|-------3--------|--------------|-------3--------|
A|-------3-2-1-|-1-1-1-1-1-1-|-3-3-3----3-2-1-|--1-1-1-1-1-1-|-3-3-3----3-2-1-|
E|-------------|-------------|----------------|--------------|----------------|

   Bbm7      Cm7 Fm7     Gb                        Db  Eb
              \_To Coda|                        \_D.S. al Coda|
G|---------|-----------|-----------|-----------|---------|
D|---------|----3--333-|-4---------|-----------|---1---3-|
A|-1111111-|-333-------|-----------|--------4--|---------|
E|---------|-----------|-----------|-----------|---------|

\_Coda|  Gb                                Fm7
G|---------------------|---------------|----------------|----------------|
D|-------4-------------|---------4--3--|----------------|----------------|
A|---------------------|---------------|----------------|----------------|
E|---------------------|---------------|----------------|----------------|

         Gb                                Fm7                Db   Eb
G|---------------------|---------------|----------------|-------------|
D|-------4-------------|---------4--3--|----------------|-----1----3--|
A|---------------------|---------------|------------4---|-------------|
E|---------------------|---------------|----------------|-------------|

\_Guitar above "C"_|   Fm7           Bbm7 Cm7       Fm7        \_1.-3._____|
G|-----------------||--------------|--------------|------------|-----------||
D|-----------------||º-3-1---3-----|--------1---3-|-3-1--3-----|---1----3-º||
A|-----------------||º-----3---3-2-|-1--3-3---3---|-----3----4-|----------º||
E|-----------------||--------------|--------------|------------|-----------||

                 Bbm7          Cm7    Fm7     Bbm7          Cm7   Fm7 
\_4.___________| "B"
G|-------------|-------------|--------------|-------------|--------------|
D|----1--------|-------------|----3---------|-------------|----3---------|
A|-4-----3-2-1-|-1-1-1-1-1-1-|-333----3-2-1-|-1-1-1-1-1-1-|-333----3-2-1-|
E|-------------|-------------|--------------|-------------|--------------|

   Bbm7          Cm7   Fm7   Gb                       Db   Eb
G|-------------|-----------|---------|------------|----------|
D|-------------|----3--333-|-4-------|------------|----------|
A|-1-1-1-1-1-1-|-333-------|---------|---------4--|---1----3-|
E|-------------|-----------|---------|------------|----------|

                                                               \_fade out|
  \_________________________________________________________x10|
 "C"  Fm7            Bbm7 Cm7        Fm7              Db    Eb 
G||----------------|--------------|--------------|-------------||
D||º--3-1---3------|-----------3--|--3-1---3-----|----1-----3-º||
A||º------3----3-2-|-1---3-3------|------3-----4-|------------º||
E||----------------|--------------|--------------|-------------||
comments
print report bad tab
2 comments total.
0 reply
wesfield wrote on November 30 2008, 04:06 pm

This is better than the other one, well done dude !

0 reply
Eric Needreary wrote on December 24 2008, 10:22 am

Thank ya! *-*

I want to post or [tab]
guest
You may want to rate the tab now too:
select rating
Please do not post tabs as comments. Select "correction" instead!