Oops, an error
Loading. Please wait.

I Cannot Believe Its True Bass Tab

25 views 3 this week
no commentswrite comment
1 2 3 4 5
3 more votes to show rating
add to favorites
launch autoscroll
font size
0
reset
guitar tuner
Autoscroll
slow
fast
+/-
esc
set tempo
stop
Help us to improve Ultimate-Guitar.com Take our survey!
×
Author
Difficulty
intermediate
[Intro]

G|---------------------------------------------------------------------------|
D|--------------------------------1--------1-3-1-----------------------------|
A|-----------------------------------1--3------------------------------------|
E|-4---3-1----4---3-1----4---3-1---------------------------------------------|


[Verse] "when I opened your letter yesterday..."

G|---------------------------------------------------------------------------|
D|--------------3--------------3---------------------------------------------|
A|----------6---------------6---------------6--6-6--6--6-6--6---------1-3-1-0|
E|-4---3-1---------4---3-1---------4---3-1---------------------3-3-3---------|

G|-8-6---6-8-----------------------------------------------------------------|
D|-----8---------------------------------------------------------------------|
A|---------------------------------------------------------------------------|
E|---------------------------------------------------------------------------|

@01:05 in

G|---------------------------------------------------------------------------|
D|-------------3---------------3---------------------------------------------|
A|----------6---------------6------6---6--6-6---6--6-6--6---------1-3-1-0----|
E|-4---3-1---------4---3-1---------------------------------3-3-3-------------|

G|---------------------------------------------------------------------------|
D|-13-11------11--13---------------------------------------------------------|
A|--------13-------------------------------------------------6-8-6-----------|
E|-----------------------4---3-1---4---3-1---4---3-1----4-6------------------|

@01:58 "over and over...."

G|------------------8------------------------(8)---------------------(15)----|
D|----------------8---6-8----------------------------------------------------|
A|--------------6---------6---------------6-------------------6/13-----------|
E|-4-4-4-6-6-6---------------4-4-4-6-6-6---------4-4-4-6-6-6-----------------|

G|------------------8------------------------(8)---------------------(15)----|
D|----------------8---6-8----------------------------------------------------|
A|--------------6---------6---------------6-------------------6/13-----------|
E|-4-4-4-6-6-6---------------4-4-4-6-6-6---------4-4-4-6-6-6-----------------|

G|---------------------------------------------------------------------------|
D|---------------------------------1-----1-3-1-------------------------------|
A|-----------------------------------1-3-------------------------------------|
E|-4---3-1-----4---3-1----4---3-1--------------------------------------------|

@02:43 "I know it's a crying shame...."

G|---------------------------------------------------------------------------|
D|-----------------------------------------------------------------------3---|
A|-4---4---4---4---4---4-6--4---4---4---4---4---4---4--6---------------6-----|
E|---4---4---4---4---4--------4---4---4---4---4---4-------4----4---3-1-------|

G|-----------------------------9---------------------------------------------|
D|-------------3-------------------------------------------------------------|
A|----------6---------------6------------------------------------------------|
E|-4---3-1---------4---3-1---------------------------------------------------|

@03:28 "oh I gave it all to you...."

G|---------------------------------8-6-----6-8-------------------------------|
D|--------------------------------------8------------------------------------|
A|-6---6---6---6-----0-1-3--1-0----------------------------------------------|
E|---6---6---6----3------------------------------4---3-1----4---3-1----------|

@03:51 "over and over....." (note the slight variation from the earlier 01:58)

G|---------------------------------------------------------------------------|
D|-------3---------3---------3-------------------3----------3----------------|
A|-4--6------4--6------4--6------4--6--13--4--6-------4--6--------4--6--1----|
E|---------------------------------------------------------------------------|

(OUTRO)

G|---------------------------------------------------------------------------|
D|---------------------------------------------------------------------------|
A|---------------------------------------------------------------------------|
E|--4---3-1------4---3--1----4---3-1-----4---3-1-----------------------------|



************************************

| (n)  Ghost note
| /    Slide up

************************************
Suggest correction
Give kudos to tab author, rate the tab!
1 2 3 4 5
comments
print report bad tab
guest
You may want to rate the tab now too:
select rating
Wanna post a correction for this tab? Suggest correction