Oops, an error
Loading. Please wait.

I Wish It Would Rain Down Tab

version 1
version 1

Whole song

Interactive

36,672 views 57 this week
2 commentsread comments
1 2 3 4 5
excellent!
x 6
add to favorites
launch autoscroll
font size
0
reset
how to read this tab
guitar tuner
Tab Pro tools
  • play this tab
  • loop segment
  • change instrument
  • show fretboard
  • metronome
Autoscroll
slow
fast
+/-
esc
set tempo
stop
Phil Collins & Eric Clapton - Wish It Would Rain Down

Album: But Seriously...
From:  Andreas Anger 


INTRO (lead guitar E.C.):

   Ab               Eb                     Fm
E|------------------------------11---------------------------------------|
B|-11b13~~~-13r11p9-11b13-11~~~----13-11\9-11b12-9-------9/11-11p9-------|
G|-------------------------------------------------10~~~-----------10~~~-|
D|-----------------------------------------------------------------------|
A|-----------------------------------------------------------------------|
E|-----------------------------------------------------------------------|

                        Ab                     Eb                Fm
                                hold bend
E|----------------------18b20-18b20-b20-r18p16-18b20-18~~~-15b17-13~~~---|
B|-------------16-18-16--------------------------------------------------|
G|-------15-17-----------------------------------------------------------|
D|-16/18-----------------------------------------------------------------|
A|-----------------------------------------------------------------------|
E|-----------------------------------------------------------------------|


E|-13-15-16-15b16r15-13~~~-------------16-18b20-20r18-18~~~-|
B|-------------------------16p13-16-18----------------------|
G|----------------------------------------------------------|
D|----------------------------------------------------------|
A|----------------------------------------------------------|
E|----------------------------------------------------------|

VERSE1:

Ab                                   Eb
   You know I never meant to see you again
                          Fm         Eb
And I only passed by as a friend
Ab                               Eb
   All this time I stayed out of sight
                    Fm
I started wondering why?


CHORUS:

Db                     Eb                 Db
Now I, I wish it would rain down, down on me
                    Eb                    Db
Yes I wish it would rain, rain down on me now
                    Eb                 Db
Yes I wish it would rain down, down on me
                    Eb
Yes I wish it would rain on me


VERSE2:

You said you didn`t need a me in your life
I guess you were right
Well I never meant to cause you no pain
But it looks like I did it again



BRIDGE:

Ab             Bb                  Db             Ab
   Though your hurt is gone, mines hanging on, inside
           Ab                           Bb
And I know, its eating me through every night and day
         Db              Ab
I`m just waiting on your sign
Ab                 Eb
`Cos I know, I know  I never meant to cause you no pain
      Fm                        Eb
And I realize I let you down
Ab
   But I know in my heart of hearts
Eb                                 Fm
   I knew I`m never gonna hold you again


Now I, I wish it would rain down...


comments
print report bad tab
2 comments total.
+1 reply
SJH*89 wrote on September 18 2011, 04:58 pm

Good job but i think you'll find the last section should end on the 16th fret on the e-string...

E|-13-15-16-15b16r15-13~~~-------------16-18b20-20r18-16~~~-|
B|-------------------------16p13-16-18----------------------|
G|----------------------------------------------------------|
D|----------------------------------------------------------|
A|----------------------------------------------------------|
E|----------------------------------------------------------|

0 reply
127407 wrote on July 28 2014, 07:10 pm

yeah that sounds better

I want to post or [tab]
guest
You may want to rate the tab now too:
select rating
Please do not post tabs as comments. Select "correction" instead!