Oops, an error
Loading. Please wait.

In The Air Tonight Bass Tab

version 1
version 1

Whole song

Interactive

25,265 views 42 this week
3 commentsread comments
1 2 3 4 5
accurate
x 12
add to favorites
launch autoscroll
font size
0
reset
guitar tuner
Autoscroll
slow
fast
+/-
esc
set tempo
stop
Help us to improve Ultimate-Guitar.com Take our survey!
×
Song: In The Air Tonight
Artist: Phil Collins
Tabbed by: K.C. (kc@kcsrealm.com)
Tuning: Standard


Comes in towards the end with this riff:

G|-------------2-0---2---0-------------------------------------------------
D|-0-3-0-3---------3--------2----------0--2--3-----------------------------
A|-----------------------------3--------------------0--3----0--3-----------
E|-------------------------------------------------------------------------


- You know that song by Phil Collins - In the air tonight?  About that guy who 
could have saved that other guy from drowning, but didn't, and Phil saw it 
all and at a show he found him?
Suggest correction
What's this?
You can suggest a correction to this tab. Community and Mods will review your correction and vote to approve or reject it.
comments
print report bad tab
3 comments total.
0 reply
Jordo141 529 wrote on July 29 2010, 09:33 pm

Pretty good. I like it

0 reply
WeirdFish000 12 wrote on January 26 2013, 09:56 pm


G|-------------2-0---2-0 ~~ -----------------------------------------------
D|-0-3-0-3---------3-------------------0--2--3-----------------------------
A|-------------------------3-1-3--------------------0--3----0--3-----------
E|-------------------------------------------------------------------------

0 reply
WeirdFish000 12 wrote on January 26 2013, 10:01 pm

That line break shouldn't be there, obviously. But the note progression for that second measure should be A-G-F-A-G-{rest} C-Bb-C, not the G-{rest}-E-C as in the original submission. It felt like a note was missing from the original tab when I played along, so I slowed the song down to 75% and that's when I heard the missing note.

guest
You may want to rate the tab now too:
select rating
Please do not post tabs as comments. Select "correction" instead!