Oops, an error
Loading. Please wait.

You Cant Hurry Love bass

version 1
version 1

Whole song

Interactive

19,412 views 39 this week
no commentswrite comment
1 2 3 4 5
x 8
add to favorites
×
Save as Personal and add changes to this tab that will be seen only by you. Learn more ›
×
You can save this tab as Personal to edit and correct it or add notes. All changes will be seen only by you. Learn more »
launch autoscroll
font size
0
reset
guitar tuner
edit
Autoscroll
slow
fast
+/-
esc
set tempo
stop
Author
Difficulty
You Can't Hurry Love by Phil Collins
Standard Tuning: EADG

[Intro]
G|----------------|
D|----------------|
A|----------------|
E|-3-3-3--3-3-333-|

[Chorus]
G|------------------------------------------------------------|
D|--------------------------------------2-2-222-------0-0-000-|
A|----------------3-3-3----------2-2-2----------0-0-0---------|
E|-3-3-3--3-3-333-------3-3-333-------------------------------|

[Verse]
G|-------------------------------------------------------------|
D|-----------------------------0-2-2-2--2-2-22--2-2-2--2-2-22--|
A|-2-2-2--2-2-222-2-2-2--2-2-22--------------------------------|
E|--------------------------------------------0--------------0-|

G|-------------------------------------------------------------|
D|-------------------------------0-0-0--0-0-000-0-0-0--0-0-000-|
A|-0-0-0--0-0-003-0-0-0--0-0-000-------------------------------|
E|-------------------------------------------------------------|

Song Order:
Intro x3
Chorus x3
Verse x1
Chorus x2
Verse x1
Chorus x2
Intro x1
Chorus continues until end.

Occasionally it sounds like the bassist may only hit two notes instead of three on the 
note thing, but other than that this is basically it.

            
            
Suggest correction
Creating personal tab
Creating personal tab
You can edit any tab online and save it as your Personal.

You can edit, replace or remove any tab part or add personal notes – all changes will be seen only by you.

Personal tabs can be accessed anytime from any device, even offline.
Learn more »
comments
print report bad tab
guest
You may want to rate the tab now too:
select rating
Wanna post a correction for this tab? Suggest correction