Oops, an error
Loading. Please wait.

You Cant Hurry Love bass

version 2
version 2

Whole song

Interactive

388 views 9 this week
no commentswrite comment
1 2 3 4 5
2 more votes to show rating
add to favorites
×
Save as Personal and add changes to this tab that will be seen only by you. Learn more ›
×
You can save this tab as Personal to edit and correct it or add notes. All changes will be seen only by you. Learn more »
launch autoscroll
font size
0
reset
guitar tuner
edit
Autoscroll
slow
fast
+/-
esc
set tempo
stop
Phil Collins
You Can’t Hurry Love (1981)
Album: "Hello, I Must be Going ..."

Intro 1:      Drums...  + + + ++ ++ +
G|------------|------------||
D|------------|------------||
A|------------|------------||
E|-333-3333-3-|-333-3333-3-||
   G            G

Intro 2: 00:05
G|------------|------------|------------|------------|-
D|------------|------------|-----2222-2-|------------|-
A|------------|-333--------|-222--------|-----5555-5-|-
E|-333-3333-3-|-----3333-3-|------------|-555--------|-
G         G             C
   I need love, love to ease my mind 
G              Bm        Em          Am  
 And I need to find time, someone to call mine
   D
My Mama said
        

Chorus 1: 00:16 (PLAY X2)
G|------------|------------|------------|------------|-
D|------------|------------|-----2222-2-|------------|-
A|------------|-333--------|-222--------|-----5555-5-|-
E|-333-3333-3-|-----3333-3-|------------|-555--------|- 
G 
You can't hurry love. 
       C            G
No you just have to wait
          Bm              Em 
She said: Love don't come easy
    Am             D
But it's a game of give and take...

    G 
You can't hurry love. 
       C            G
No you just have to wait
     Bm         Em           
Just trust on a good time
   Am         D
No matter how long it takes
        

Bridge: 00:37   
G|------------|------------|------------|------------|-
D|------------|------------|-222-2222-2-|-222-2222-2-|-
A|-222-2222-2-|-222-2222-2-|------------|------------|-
E|------------|------------|------------|------------|-
Bm
How many heartaches must I stand
         Em
before I find the love to let me live again
G|------------|------------|------------|------------|-
D|------------|------------|------------|------------|-
A|------------|------------|-555-5555-5-|-555-5555-5-|-
E|-555-5555-5-|-555-5555-5-|------------|------------|-
              Am
Right now the only thing, that keeps me hangin' on
       D 
When I feel my strength
G/D       D7
 Oh, it's almost gone
    D
I remember Mama said


Chorus 2: 00:57  (PLAY X2)
G|------------|------------|------------|------------|-
D|------------|------------|-----2222-2-|------------|-
A|------------|-333--------|-222--------|-----5555-5-|-
E|-333-3333-3-|-----3333-3-|------------|-555--------|- 
        
G 
You can't hurry love. 
       C            G
No you just have to wait
          Bm              Em 
She said: Love don't come easy
    Am             D
But it's a game of give and take...

    G 
How long must I wait? 
         C           G
How much more must I take
       Bm    Em 
Before loneliness 
      Am              D
Will 'cause my heart, heart to break?
        

Bridge: 01:16   
G|------------|------------|------------|------------|-
D|------------|------------|-222-2222-2-|-222-2222-2-|-
A|-222-2222-2-|-222-2222-2-|------------|------------|-
E|------------|------------|------------|------------|-
   Bm
No one can bear to live a life alone
         Em
I grow impatient for a love to call my own
G|------------|------------|------------|------------|-
D|------------|------------|------------|------------|-
A|------------|------------|-555-5555-5-|-555-5555-5-|-
E|-555-5555-5-|-555-5555-5-|------------|------------|-
           Am
But when I feel that I, I can't go on
           D
Well these precious words 
G/D       D7
  Keep me hangin' on
    D
I remember Mama said
        BBB BBBB-B  (X2)


Chorus: 01:36 (PLAY X2)
G|------------|------------|------------|------------||
D|------------|------------|-----2222-2-|------------||
A|------------|-333--------|-222--------|-----5555-5-||
E|-333-3333-3-|-----3333-3-|------------|-555--------||         
    G 
You can't hurry love. 
       C            G
No you just have to wait
          Bm              Em 
She said: Love don't come easy
    Am             D
But it's a game of give and take...

    G 
You can't hurry love. 
       C            G
No you just have to wait
     Bm         Em           
Just trust on a good time
   Am         D
No matter how long it takes     
                
        
INTERLUDE: 01:55 
G|------------|-
D|------------|-
A|------------|-
E|-333-3333-3-|-        
G
Now break!

(PLAY X3)
G|------------|------------|------------|------------||
D|------------|------------|-----2222-2-|------------||
A|------------|-333--------|-222--------|-----5555-5-||
E|-333-3333-3-|-----3333-3-|------------|-555--------|| 
    G                     C  
Now love, love don't come easy   
G       Bm      Em         Am  D
  But I keep on waiting, anticipating... 

         G                     C         
For that soft voice to talk to me at night
G          Bm     Em      Am      D
  For some tender arms to hold me tight...

       G            C       
I keep waiting, oh 'til that day, 
G              Bm   Em                     Am
  But it ain't easy, no, you know it ain't easy. 
   D
My Mama said... 


Outro / Chorus: 02:27 (repeat and fade)
G|------------|------------|------------|------------|-
D|------------|------------|-----2222-2-|------------|-
A|------------|-333--------|-222--------|-----5555-5-|-
E|-333-3333-3-|-----3333-3-|------------|-555--------|- 
    G 
You can't hurry love. 
       C            G
No you just have to wait
          Bm              Em 
She said: Love don't come easy
    Am             D
But it's a game of give and take...

    G 
You can't hurry love. 
       C            G
No you just have to wait
     Bm         Em           
Just trust on a good time
   Am         D
No matter how long it takes
                        
    G 
You can't hurry love. 
       C            G
No you just have to wait
          Bm              Em 
She said: Love don't come easy
    Am             D
But it's a game of give and take...
        

End: 02:57


            
            
Suggest correction
Creating personal tab
Creating personal tab
You can edit any tab online and save it as your Personal.

You can edit, replace or remove any tab part or add personal notes – all changes will be seen only by you.

Personal tabs can be accessed anytime from any device, even offline.
Learn more »
Give kudos to tab author, rate the tab!
1 2 3 4 5
comments
print report bad tab
guest
You may want to rate the tab now too:
select rating
Wanna post a correction for this tab? Suggest correction