Oops, an error
Loading. Please wait.

Bare Necessities Tab

11,273 views 126 this week
no commentswrite comment
1 2 3 4 5
x 8
add to favorites
launch autoscroll
font size
0
reset
how to read this tab
guitar tuner
Autoscroll
slow
fast
+/-
esc
set tempo
stop
Help us to improve Ultimate-Guitar.com Take our survey!
×
Author
Difficulty
SONG: Bare Necessities
ARTIST: Phil 'Baloo' Harris
YEAR: 1967
SOUNDTRACK: I think you'll probably know where this song is from. 

e|--------0-----0------------------------------0-5-3-1-0----3-5-3--5-3-5-3-0-----------5-----|
B|-----1-----3----3-1--1-3-1-3-1-3-1-----1---1-----------3-------------------1-3-1-3-1---1-1-|
G|-0-2-------------------------------2-0---0-------------------------------------------------|
D|-------------------------------------------------------------------------------------------|
A|-------------------------------------------------------------------------------------------|
E|-------------------------------------------------------------------------------------------|

e|---0-3-0-3-0----------|
B|-1-----------1------1-|
G|---------------2--0---|
D|----------------------|
A|----------------------|
E|----------------------|

e|----------------------------------------------------------------0-0-0---------------------|
B|------------------------------------------------------1---0-1-3-------3-1-0-1-1-3-3-3-1-0-|
G|-0-0-0------------2-2-0---0---0-0-0-----------2-2-0-2-------------------------------------|
D|-------4-2-0--0---------4-----------4-2-0-0-----------------------------------------------|
A|------------------------------------------------------------------------------------------|
E|------------------------------------------------------------------------------------------|

e|-----------------------------------------|
B|-------------------1-1-1---0-0-----------|
G|-0-2-------2-------------------2-2-0---0-|
D|-----0-0-0---0-0-0-------------------4---|
A|-----------------------------------------|
E|-----------------------------------------|

e|-------------------------------------------|
B|---0-1-3-3-3---1-1-0-0---------------------|
G|-2---------------------2-2-0---0---0-----0-|
D|-----------------------------4-------2-4---|
A|-------------------------------------------|
E|-------------------------------------------|
Suggest correction
comments
print report bad tab
guest
You may want to rate the tab now too:
select rating
Wanna post a correction for this tab? Suggest correction