Oops, an error
Loading. Please wait.

Love Broke Thru Tab

1,499 views 3 this week
no commentswrite comment
1 2 3 4 5
please rate
add to favorites
launch autoscroll
font size
0
reset
how to read this tab
guitar tuner
Tab Pro tools
  • play this tab
  • loop segment
  • change instrument
  • show fretboard
  • metronome
×
Best way to learn
"Love Broke Thru"
Autoscroll
slow
fast
+/-
esc
set tempo
stop
Contributor
Difficulty
intermediate
Love Broke Thru
Phil Keaggy

Standard tuning

Intro:
  e e e e e e q
E|0-----0---------|------0---------|----------------|-----------
B|0-2-------2-----|3---------3-----|3-----------3---|-----------
G|2---2-------2---|--2---------2---|--4-2-0---0-----|-----------
D|2---------------|----4-----------|----------------|-----------
A|0-------0-------|0-------0-------|----------------|-----------
E|----------------|----------------|3-------3-------|-----------
                                                                              
 e t t te t t te t t t q
---5p3p2-------------------|0-----0---------|------0---------|--
--------3------------------|0-2-------2-----|3---------3-----|--
----------4p2p0------------|2---2-------2---|--2---------2---|--
-0-------------4-2h4p2p0---|2---------------|----4-----------|--
---------------------------|0-------0-------|0-------0-------|--
---------------------------|----------------|----------------|--
                                                                              
               e e       t te   t te q 
---------------5/7|5---5-----------------|------0---------|-----
-3-----------3-5/7|5---5h7p5--3----------|------2---2-----|-----
---4-2-0---0------|--7------7-2h4p2------|----4-------4---|-----
------------------|0---------------4-2---|--2-----------2-|-----
------------------|----------------------|0-------0-------|-----
-3-------3--------|2*--------------------|----------------|-----
                                                                  
                   (* second guitar add F# on bass E string)


                                     t t te s ss s ss s s
-------0---------|----------------|--5p3p2------------------|-----------
-------3---3-----|----3-3---------|-------3-----------------|-----------
-----2-------2---|----4-2---0-----|---------2p0-------------|-----------
---4-------------|--0---------0---|------------4-2p0--------|-----------
-0-------0-------|----------------|-----------------0h2h4---|-----------
-----------------|3-------3-------|2------------------------|-----------
                                                                              

-0-----0--------|------0---------|-2-3-2-------0-2-|0---0-h2-0-------|--
-2-2-------2----|3---------3-----|-3-----3---3-----|--3--------3-----|--
-----2-------2--|--2---------2---|-----------------|-------------2---|--
----------------|----4-----------|-----------------|-----------------|--
-0-------0------|0-------0-------|-----------------|-----------------|--
----------------|----------------|-3-------3-------|2--------2-------|--
                                                                              

Verse:

-5-----5---------|5-----5---------|5-----5---------|--------0-------|---
-2-----2-------2-|3-----3---------|2-----2---------|------3---3-----|---
-----2-------2---|----2-------2---|----2-------2---|----4-------4---|---
---2-------2-----|--4-------4-----|--2-------2-----|--5-----------5-|---
-0-------0-------|0-------0-------|0-------0-------|0---------------|---
-----------------|----------------|----------------|----------------|---
     Like a foolish... 
        
                                                                          

-------0-h2-------|----------------|------4----------|2----------------|--
-----3------3-----|------3-------3-|6-------7-/9-----|------2----------|--
---2----------2---|----2-------2---|----4------------|----2---2-/4-----|--
-0--------------0-|--4-------4-----|--6-----7-/9-----|--4-----4-/6-----|--
------------------|2-------2-------|4----------------|-----------------|--
------------------|----------------|-----------------|2----------------|--
                                  

---------0-------|--------0-------|-----------0------|--------0-------|--
-------2---2-----|------3---3-----|------0-h2---2-p0-|------3---3-----|--
-----4-------4---|----2-------2---|----2-------------|----4-------4---|--
---2-----------2-|--4-----------4-|--2---------------|--5-----------5-|--
-0---------------|0---------------|0-----------------|0---------------|--
-----------------|----------------|------------------|----------------|-- 


-0-h2-----------0-|2---------------|----------------2|--------2---0---|--
------3-------3---|------3-------3-|6-----6-7-/9----2|--------2---0---|--
--------2---2-----|----4-------4---|----4-----------2|------2-2---1---|--
-0--------0-------|--4-------4-----|--6-----7-/9-----|----4---4---2---|--
------------------|2-------2-------|4----------------|--4-----4---2---|--
------------------|----------------|-----------------|2-------2---0---|--
                                                                              

-2-----2---------|0---0-0-0-0-0-0-|0---0-0----------|---
-3-------3-------|0---0-0-0-0-0-0-|0---0-0----------|---
-2---------2-----|2---2-2-2-2-2-2-|1---1-1-1-2-4-/7-|---
-0-----------0---|2---2-2-2-2-2-2-|2---2-2----------|---
-----------------|2---2-2-2-2-2-2-|2---2-2----------|---
-----------------|0---0-0-0-0-0-0-|0---0-0-0-2-4-/7-|---
                                                                              

Chorus:
-0-------0---0---|----------------|--------2---2---|----------------|--
-2-------0h2-0---|------0-------2-|0-------0---3---|--------3/5-3---|--
-2-------------2-|----2-------2---|0-------0---4---|------4-2/4-2---|--
-2-----2---------|--2-------2-----|0-----------5---|----5---------5-|--
-0---0-----------|0-------0-------|2-----------0---|--0-------------|--
-----------------|----------------|3-----3---------|----------------|--
         I was lost....            fan     ta  sy...
                                          

---------2-------|----------------|2-------2-------|----------------|--
-----3-----2---2-|------3-------3-|4-------4-------|------2-------0-|--
---2---2---------|----2-------2---|2-------2-------|----2-------1---|--
-0-------0-------|--4-------4-----|4-------4-------|--2-------2-----|--
-----------------|2-------2-------|2-------2-------|0---------------|--
-----------------|----------------|----------------|--------4-------|--
                me...
comments
We did not receive enough feedback on this tab! Please rate:
print report bad tab
1 2 3 4 5
I want to post or [tab]
guest
You may want to rate the tab now too:
select rating
Please do not post tabs as comments. Select "correction" instead!