Oops, an error
Loading. Please wait.

Sunday School tab

34 views 1 this week
no commentswrite comment
1 2 3 4 5
3 more votes to show rating
add to favorites
×
Save as Personal and add changes to this tab that will be seen only by you. Learn more ›
×
You can save this tab as Personal to edit and correct it or add notes. All changes will be seen only by you. Learn more »
launch autoscroll
font size
0
reset
how to read this tab
guitar tuner
edit
Autoscroll
slow
fast
+/-
esc
set tempo
stop
About this tab version
There isn't any version of this song any where on the net. Was this info helpful? Yes No
SUNDAY SCHOOL 
Phil Keaggy
[Intro]
E|-----------------------------|----------------------------|----------------------------|-------|
B|---------3-----------3-------|--------3-------------------|-------3-----------3--------|--3----|
G|------2-----2-----2-----2----|-----2-----2----------------|----2-----2-----2-----2-----|--3----|
D|---0-------------------------|--------------------0-------|----------------------------|--2----|
A|-----------------------------|--------------0--2----------|--------------2-------------|--3----|
E|---------------1-------------|--3-------------------------|----------------------------|-------|

Give me more darkness said the blind man,

Give me more folly said the fool,

Give me stone silence said the deaf man,

    Bb                         Am
I didn't believe Sunday School.

Take it away said the hungry man,

Although I'm starving I'll get by.

Take it away said the thirsty man,
       Bb                  Am
I'll find a drink before I die.

[Chorus]
         Bb        Gm              Dm  C  Dm
I've got plenty of time to think of Heaven,
          Bb          Am               Dm  C  Dm
But right now there's too much on my mind.
         Gm    Cm7          Bb         Eb
And I've had enough of that religious stuff
          Am                        D7#9
And besides I can't relate to your kind.

E|-----------------------------|----------------------------|----------------------------|-------||
B|---------3-----------3-------|--------3-------------------|-------3-----------3--------|--3----||
G|------2-----2-----2-----2----|-----2-----2----------------|----2-----2-----2-----2-----|--3----||
D|---0-------------------------|--------------------0-------|----------------------------|--2----||
A|-----------------------------|--------------0--2----------|--------------2-------------|--3----||
E|---------------1-------------|--3-------------------------|----------------------------|-------||

Leave me alone said the lonely man,
Don't want to let go of this feeling.
Leave me to roam said the wanderer,
There's too many cracks in my ceilings.

[Chorus]
         Bb        Gm              Dm  C  Dm
I've got plenty of time to think of Heaven,
          Bb          Am               Dm  C  Dm
But right now there's too much on my mind.
         Gm    Cm7          Bb         Eb
And I've had enough of that religious stuff
          Am                        D7#9
And besides I can't relate to your kind.

E|-----------------------------|----------------------------|----------------------------|-------|
B|---------3-----------3-------|--------3-------------------|-------3-----------3--------|--3----|
G|------2-----2-----2-----2----|-----2-----2----------------|----2-----2-----2-----2-----|--3----|
D|---0-------------------------|--------------------0-------|----------------------------|--2----|
A|-----------------------------|--------------0--2----------|--------------2-------------|--3----|
E|---------------1-------------|--3-------------------------|----------------------------|-------|

Give me more darkness said the blind man,
Give me more folly said the fool,
Give me stone silence said the deaf man,
I didn't believe Sunday School.

[Chorus]
         Bb        Gm              Dm  C  Dm
I've got plenty of time to think of Heaven,
          Bb          Am               Dm  C  Dm
But right now there's too much on my mind.
         Gm    Cm7          Bb         Eb
And I've had enough of that religious stuff
          Am                        D7#9
And besides I can't relate to your kind.


            
            
Suggest correction
Creating personal tab
Creating personal tab
You can edit any tab online and save it as your Personal.

You can edit, replace or remove any tab part or add personal notes – all changes will be seen only by you.

Personal tabs can be accessed anytime from any device, even offline.
Learn more »
Give kudos to tab author, rate the tab!
1 2 3 4 5
comments
print report bad tab
guest
Wanna post a correction for this tab? Suggest correction