Oops, an error
Loading. Please wait.

What A Day tab

5,814 views 3 this week
no commentswrite comment
1 2 3 4 5
1 last vote to show rating
add to favorites
×
Save as Personal and add changes to this tab that will be seen only by you. Learn more ›
×
You can save this tab as Personal to edit and correct it or add notes. All changes will be seen only by you. Learn more »
launch autoscroll
font size
0
reset
how to read this tab
guitar tuner
edit
Autoscroll
slow
fast
+/-
esc
set tempo
stop
Author
Difficulty
What A Day (Phil Keaggy)

===========
Main Intro:
===========

      Am                          Dm7
      Bar5 - - - - - - - - - - - - - - - - - - - -|
E-----5----7\5/7---------------|----------5-5-5--------|
B-----5----5-------8--8--------|--6-6-6---6-6-6--------|
G-----5------------5--5--7\5---|--5-5-5---5-5-5--------|
D-----7------------------0--/7-|--7-7-7----------------|
A-----0------------------------|--5-------5------------|
E------------------------------|-----------------------|


      CM7                            GM7      FM7     E7
E-----3----7\6/7-------------------|--2-2-2-----------------|
B-----5----8\7/8---8\7/8-----------|--3-3-3---1\0/1---------|
G-----4------------9\8/9----9\8/9--|--4-4-4---2\0/2---1-----|
D-----5--------------------10\9/10-|----------3-------0-----|
A-----3----------------------------|---------------------2--|
E----------------------------------|--3-3-3-----------0-----|
                              ^       (thumb)
                (alternate - bar 4)
                          ---------|
                          --5\4/5--|
                          --5\4/5--|
                          ---------|
                          ---------|
                          ---------|


Am          E   Am         D   D/F#
When I get Home I will see all
G         Bm         Em   Fdim7
The holy men I read about.
Peter and John, James, Luke, and Paul
And brother Tom without a doubt.
           Am               G/B
And I do believe there will be
      C           D   D/F#
King David at the harp
G          Bm                Em    Fdim7
A song of praise with every chord.
                Am        G/B
What a sight to see, the redeemed and
    C                D/F#  G     C/G      G   [Note 1]
The angels gathered round worshiping the Lord.
  C    G/B  Am7        G
What a day that will be
D [Note 2]              Am7 [repeat main intro]
Oh what a day that will be!


When we get Home, our Eternal Home
There'll be no more sick and dying.
No one is sad, no one is alone
And there will be no more crying.
He will wipe away every tear
From His children's eyes
And put a smile upon their faces.
What a happy day when we see
Our Lord in Paradise
Crowned as King of Kings.
What a day that will be
Oh what a day that will be!  [chorus intro]

==============
Chorus Intro:
==============

      Am                          D
      Bar5 - - - - - - - - - -|   Bar5- 7- - - 9- - - - 8- - -
E-----5----7\5/7---------------|------------------------8--------|
B-----5----5-------8--8--------|--7-----8\7/8--10\9/10--10\8/10--|
G-----5------------5--5--7\5---|--7---7/9------11--(hold)--------|
D-----7------------------0--/7-|--0--(hold)----------------------|
A-----0------------------------|---------------------------------|
E------------------------------|---------------------------------|

G           Am7
What a day that will be
G/B                  C   Am7
What a day that will be
G           Am7
What a day that will be
G/B                  C   E7  Am7  [chorus intro]
What a day that will be!

__________________

Note 1:

      G   Am7  G/B     (C)
E-------------------|---0--|
B-----0----1----3---|------|
G-------------------|------|
D-------------------|------|
A----------0----2---|---3--|
E-----3-------------|------|


Note 2:

      D/F#  G  Am7  G/B    C  D  (Am7/E)
E-----------------------|--0--2--3------|
B-----------0---1----3--|---------------|
G-----2-----------------|---------------|
D-----------------------|-----0--2------|
A---------------0----2--|--3------------|
E-----2-----3-----------|---------------|
Suggest correction
Creating personal tab
Creating personal tab
You can edit any tab online and save it as your Personal.

You can edit, replace or remove any tab part or add personal notes – all changes will be seen only by you.

Personal tabs can be accessed anytime from any device, even offline.
Learn more »
Give kudos to tab author, rate the tab!
1 2 3 4 5
comments
print report bad tab
guest
You may want to rate the tab now too:
select rating
Wanna post a correction for this tab? Suggest correction