Oops, an error
Loading. Please wait.

At Your Name Yahweh Yahweh Bass Tab

version 2
version 2

Whole song

656 views 3 this week
1 commentread comment
1 2 3 4 5
3 more votes to show rating
add to favorites
launch autoscroll
font size
0
reset
guitar tuner
Autoscroll
slow
fast
+/-
esc
set tempo
stop
Help us to improve Ultimate-Guitar.com Take our survey!
×
Author
Difficulty
intermediate
I don't think the one bass tab for this song is right i think it goes more like this. 
(Note) this is tabbed in order with the recorded song.

Tabbed by Brandon Bushnell
Tuning (EADG)


G|-----------------------------------------------------------------|
D|-----------------------------------------------------------------|
A|--5--/10-----6--8--/10----6--8--/10-----6--5--6--8~--5--6--------|
E|----------6------------6-------------6---------------------5--6--|


G|---------------------------------------------------------------------|
D|---------------------------------------------------------------------|
A|--5--6-------5-----6--/8-------5-----6--8--------5-----6--/8--8--10--|
E|-------5--6-----0--------6--8-----6--------6--8-----6----------------|


G|--------------------|
D|--------------------|
A|--8--6--6--8--8-----|
E|-----------------6--|


G|----------------------------------------------------------------|
D|----------8-----------------------------------------------------|
A|-----6h8----8----5--/10-10--------6-6----8--/10-10---------6-6--|
E|--0-----------6------------6--6h8------8-----------6--6h8-------|


G|--------------------------------------------------------------------|
D|-----------------------------------------8------------------8h10----|
A|--8--/10-10---------6-6--8--/10-10----8----6-6--5---6-6--/8------8--|
E|------------6--6h8------------------6-------------6-----------------|



G|----------------------------------------------------------------------|
D|----------------------------12--10-----------------10--12--10---------|
A|--8--10--13--12--10--8--/10---------12--10-----10--------------10-----|
E|--------------------------------------------8----------------------8--|



G|---------------------------------------------------------------------------|
D|------10-/12--------------------------------12--10-------------10----------|
A|--10----------10-----10--13--12--10--8--/10--------12--10---10----------6~-|
E|-----------------10---------------------------------------8-------8--10----|


G|----------------------10~--10--12-----------------------------|
D|---------------10h12---------------12p10\8--------------------|
A|--REST--10h12-------------------------------8--6--5----6--/8--|
E|----------------------------------------------------6---------|


G|-------------------------------------------------------------------|
D|-----------------------------8----------------------------8--------|
A|-----------/8-----10-10----8----6-6--6--8--/10-10--\8---8---6-6----|
E|--8\-1--1------8--------\6----------------------------6------------|


G|------------------------------------------------------------|
D|---------8h10-------------------8---------------------------|
A|--6--/8-------8--10-10--\8----8----6-6--5----6-6--/8--------|
E|----------------------------6-------------6-----------\8-1--|


G|-----------------------------------------------------------------|
D|------8h10------------------------8--------------8h10------------|
A|--/8--------8--10-10--8h10p8----8---6-6-----6--8-------8--10-10--|
E|------------------------------6---------6h8----------------------|


G|----------------------------------------------------------------|
D|--------8---------8------8h10------------------8----------------|
A|-----8----6-6--6----6--8------8--10-10--\8---8---6-6--5----6-6--|
E|--6----------------------------------------6-------------6------|


G|--------------------------------------------------------------------|
D|------8h10----------------------------------------------------------|
A|--/8-------8--\5--5--6-6--/8--8----------5---6-6--/8--8----------5--|
E|--------------------------------6-6--6h8---6------------6-6--6h8----|


G|-----------------------------------------|
D|-----------------------------------------|
A|-----6-6--/8----8----5----6-6--/8-8------|
E|--6----------6----6----6-------------6~--|
Suggest correction
Give kudos to tab author, rate the tab!
1 2 3 4 5
comments
print report bad tab
1 comment total.
0 reply
jondurrant 639 Oct 07, 2013 01:14 PM

Intro should look like this, A|12-------5| single notes, just the intro part.

guest
You may want to rate the tab now too:
select rating
Wanna post a correction for this tab? Suggest correction