Oops, an error
Loading. Please wait.

This Is Amazing Grace tab

version 5
version 5

Whole song

1,264 views 6 this week
no commentswrite comment
1 2 3 4 5
1 last vote to show rating
add to favorites
×
Save as Personal and add changes to this tab that will be seen only by you. Learn more ›
×
You can save this tab as Personal to edit and correct it or add notes. All changes will be seen only by you. Learn more »
launch autoscroll
font size
0
reset
how to read this tab
guitar tuner
edit
Autoscroll
slow
fast
+/-
esc
set tempo
stop
Author
This is amazing grace - Phil Wickham
key of Bb
Tuning:Standart

e|---------------------------------------------------------------------------|
B|---------------------------------------------------------------------------|
G|---------------------------------------------------------------------------|
D|-0----0-----0--0------0--0---0----0--------0----0----0-0-------0---0--1----|
A|-1----1-----1--1-3-1--1--1---1----1--3-1---1----1----1-1-3-1---1---1--1----|
E|-------------------1-------------------1-------------------3---------------|
  who breaks the power of sin and darkness whose love is mighty and so much 

e|---------------------------------------------------------------------------|
B|---------------------------------------------------------------------------|
G|---------------------------------------------------------------------------|
D|--------------------------------------0---------------0---0------0----0----|
A|---3--1----3----3---3--3--1--3----3---0--3--1----1----1---1------1----1----|
E|------3----3--------3--3--1-------1------1-------1-------------------------|
   stronger the King of glory the King above all kings who shakes the whole 

e|---------------------------------------------------------------------------|
B|---------------------------------------------------------------------------|
G|---------------------------------------------------------------------------|
D|-------0---0--0---0------0----0-----0---0---------0--0---1---0-------------|
A|-3--1--1---1--1---1-3-1--1----1-----1---1--3--1---1--1---1---1-3-1--3----3-|
E|----1-----------------1-----------------------3------------------1--3------|
  earth with holy thunder who leaves us breathless in awe and wonder the King 

e|---------------------------------------------------------------------------|
B|---------------------------------------------------------------------------|
G|---------------------------------------------------------------------------|
D|------------------0--------------------------------------------------------|
A|-3---1----3----3--0--3---1----1--------------------------------------------|
E|-----1---------1-----1--------1--------------------------------------------|
  of glory the king above all kings

e|-------------------------------------------------------------------------------|
B|-------------------------------------------------------------------------------|
G|-------------------------------------------------------------------------------|
D|--------3---3--3--3-0---0----3----3--3--3-0---0------3---3---3-----3----0---0--|
A|--------1------1--------1----5----5--5--5-----1-3-1--5---5---5-----5--------1--|
E|-------------------------------------------------------------------------------|
chorus: this is amazing grace this is unfailing love that you would take my place

e|---------------------------------------------------------------------------|
B|---------------------------------------------------------------------------|
G|---------------------------------------------------------------------------|
D|--3---3----3----5---0---------3----3----3---0-----0----3--3---3----5--0----|
A|--5---5----5-------------3----5---------5---------1----5------5------------|
E|---------------------------------------------------------------------------|
  that you would bear my cross You laid down Your life that I would be set 

e|---------------------------------------------------------------------------|
B|---------------------------------------------------------------------------|
G|---------------------------------------------------------------------------|
D|--1-0-----------------------------0----------------------------------------|
A|--1--1--3-3-3---3---1---3----3-----------3---1--1--------------------------|
E|----------5-----5------------1---------------1--1--------------------------|
  free  Jesus i sing for all that you've done for me

e|---------------------------------------------------------------------------|
B|---------------------------------------------------------------------------|
G|---------------------------------------------------------------------------|
D|----------------------3---3---3---0----------------------------1-0---------|
A|--------1--1--1--1----1---1---1-----3---3--3--3---3---3----1-------------3-|
E|--------1--1-----------------------------------------------1---------------|
bridge: worthy is the lamb who was slain worthy is the king who conquered the 

e|---------------------------------------------------------------------------|
B|---------------------------------------------------------------------------|
G|---------------------------------------------------------0-0---------------|
D|-------0--0---0--0----1---0--------3----3-------3-----3--1-1---------------|
A|--1----1------1--1------------1----1-------1-------1-----------------------|
E|--1------------------------------------------------------------------------|
  grave worthy is the lamb who was slain worthy worthy worthy (repeat chorus)

            
            
Suggest correction
Creating personal tab
Creating personal tab
You can edit any tab online and save it as your Personal.

You can edit, replace or remove any tab part or add personal notes – all changes will be seen only by you.

Personal tabs can be accessed anytime from any device, even offline.
Learn more »
Give kudos to tab author, rate the tab!
1 2 3 4 5
comments
print report bad tab
guest
You may want to rate the tab now too:
select rating
Wanna post a correction for this tab? Suggest correction