Oops, an error
Loading. Please wait.

Your Love Awakens Me intro tab

version 1
version 1

Intro

  • Hope this tab helps you guitarists out there who n... Show more
1,234 views 81 this week
5 commentsread comments
1 2 3 4 5
x 4
add to favorites
×
Save as Personal and add changes to this tab that will be seen only by you. Learn more ›
×
You can save this tab as Personal to edit and correct it or add notes. All changes will be seen only by you. Learn more »
launch autoscroll
font size
0
reset
how to read this tab
guitar tuner
edit
Autoscroll
slow
fast
+/-
esc
set tempo
stop
Author
Difficulty
About this tab version
Hope this tab helps you guitarists out there who need to learn the intro. (If you want me to tab out the whole song, I definatly can). Was this info helpful? Yes No
[Intro]
e|--------------------|----------------|
B|--------------------|---------------9|
G|8----8-11-8---------|8----8-11-8-----|
D|--11--------11-9-11-|--11--------11--|
A|--------------------|----------------|
E|--------------------|----------------|

                                           (3x)
e|--------------------|--------------------|
B|--------------------|---------------9----|
G|8----8-11-8---------|8----8-11-8------11-|
D|--11--------11-9-11-|--11--------11------|
A|--------------------|--------------------|
E|--------------------|--------------------|

A|--------------------|----------------------|
B|--------------------|---------------9------|
G|8----8-11-8---------|8----8-11-8------11-8-|
D|--11--------11-9-11-|--11--------11--------|
A|--------------------|----------------------|
E|--------------------|----------------------|

            
            
Suggest correction
Creating personal tab
Creating personal tab
You can edit any tab online and save it as your Personal.

You can edit, replace or remove any tab part or add personal notes – all changes will be seen only by you.

Personal tabs can be accessed anytime from any device, even offline.
Learn more »
comments
print report bad tab
5 comments total. Showing first comments.
+2 reply
danielcharo78 10 Aug 01, 2017 12:25 PM

Can you tab the whole song ?

0 reply
wavery 174 Aug 05, 2017 11:15 AM

Maybe

0 reply
wavery 174 Aug 05, 2017 11:16 AM

I haven't tabbed for a while, but if you'd like me to I can

guest
You may want to rate the tab now too:
select rating
Wanna post a correction for this tab? Suggest correction