Oops, an error
Loading. Please wait.

Truman Sleeps tab

version 1
version 1

Whole song

Interactive

9,573 views 6 this week
2 commentsread comments
1 2 3 4 5
2 more votes to show rating
add to favorites
×
Save as Personal and add changes to this tab that will be seen only by you. Learn more ›
×
You can save this tab as Personal to edit and correct it or add notes. All changes will be seen only by you. Learn more »
launch autoscroll
font size
0
reset
how to read this tab
guitar tuner
edit
Autoscroll
slow
fast
+/-
esc
set tempo
stop
Author
Composer: Phillip Glass http://www.philipglass.com/
Title: Truman Sleeps (From the movie The Truman Show)

Standard tuning. e B G D A E

This was is transcribed from the piano version by myself.

Main Chorus, Played throught
e|-----------------------------------------------------------------| Repeat
B|-----4-----4---------5-----5---------4-----4---------4-----4-----| throught
G|---4-----4-----4---4-----4-----4---4-----4-----4---3-----3-----3-|
D|-6-----6-----6---6-----6-----6---4-----4-----4---5-----5-----5---|
A|-----------------------------------------------------------------|
E|-----------------------------------------------------------------|

The second time the chorus has been repeated start the folowing solos over the top, play 
first note when the B string is hit the first time in the chorus.

e|-----7---9---10---12--------14---15---14--|
B|------------------------------------------|
G|------------------------------------------|
D|------------------------------------------|
A|------------------------------------------|
E|------------------------------------------|

Each bar is played again when B is played on the 4th fret for the first time.

e|-----7---9---10---12--------14---15---17------18--|
B|--------------------------------------------------|
G|--------------------------------------------------|
D|--------------------------------------------------|
A|--------------------------------------------------|
E|--------------------------------------------------|

e|-----20---19---17---15------14------16--|
B|----------------------------------------|
G|----------------------------------------|
D|----------------------------------------|
A|----------------------------------------|
E|----------------------------------------|

e|-----20---19---17---15------14------13--|
B|----------------------------------------|
G|----------------------------------------|
D|----------------------------------------|
A|----------------------------------------|
E|----------------------------------------|

Any questions please email matto2600@hotmail.com

Enjoy :)

            
            
Suggest correction
Creating personal tab
Creating personal tab
You can edit any tab online and save it as your Personal.

You can edit, replace or remove any tab part or add personal notes – all changes will be seen only by you.

Personal tabs can be accessed anytime from any device, even offline.
Learn more »
Give kudos to tab author, rate the tab!
1 2 3 4 5
comments
print report bad tab
2 comments total.
0 reply
ballabds4555 61 Nov 23, 2008 07:39 PM

sounds a little sharpe to me srry man = (

0 reply
HenryGLewis 10 Sep 08, 2011 06:14 AM

Sounds close enough for me

guest
You may want to rate the tab now too:
select rating
Wanna post a correction for this tab? Suggest correction