Oops, an error
Loading. Please wait.

Home chords

version 5
version 5

Whole song

205 views 12 this week
no commentswrite comment
1 2 3 4 5
1 last vote to show rating
add to favorites
×
Save as Personal and add changes to this tab that will be seen only by you. Learn more ›
×
You can save this tab as Personal to edit and correct it or add notes. All changes will be seen only by you. Learn more »
launch autoscroll
font size
0
reset
transpose
0
reset
simplify chords
display chords
guitar tuner
edit
Autoscroll
slow
fast
+/-
esc
set tempo
stop
Author
Difficulty
About this tab version
Tablature guide for fingerstyle parts. Formatted for two pages. Was this info helpful? Yes No
Strumming
There is no strumming pattern for this song yet. and get +5 IQ
Phillip Phillips - Home
                        Csus = x3301x   F/C = x33211    Gsus = 3x0013
Intro
      C              |               |Csus           |               ||x2
     ----------------|---------------|---------------|---------------|
     -----1----------|----1----------|----1----------|----1----------|
     ------------0---|-----------0---|-----------0---|-----------0---|
     -----2-------2--|----2-------2--|----3-------3--|----3-------3--|  
     -3-------3------|3-------3------|3-------3------|3-------3------|
     ----------------|---------------|---------------|---------------|
          m      i    (simili)
RH =  T   T   T   T  


Verse 1 
  C    Csus             C    Csus
 Hold on   to me as we go
        C      Csus                 C    Csus
 As we roll down   this unfamiliar road
                   Am       Csus                 C    Csus  
 And although this wave (wave) is stringing us along
      
      C  G/B Am  G    |Am             |               |               |
     -----------------|---------------|---------------|---------------|
     -1--1---1---1---0|----1----------|----1----------|----1----------|
     -----------------|-----------2---|-----------2---|-----------2---|
     -----------------|----2-------2--|----2-------2--|----2-------2--|
     -3----2---0------|0-------0------|0-------0------|0-------0------|
     --------------3--|---------------|---------------|---------------|
Just know you’re not alone                              'cause I’m gonna


  F   C/E     G/D     |C              |           |           |           ||
  --------------------|---------------|-----------|-----------|-----------|
  -1---1----1----1---0|----1----------|---1-------|---1-------|---1-------|
  --------------------|-----------0---|--------0--|--------0--|--------0--|
  -3----2----0----0---|----2-------2--|---2-----2-|---2-----2-|---2-----2-|
  --------------------|3-------3------|3-----3----|3-----3----|3-----3----|
  --------------------|---------------|-----------|-----------|-----------|
 make this place your  home


Verse 2
  C        Csus           C      Csus
 Settle down, it'll all be clear
  C                       Csus                       C     Csus
 Don't pay no mind to the demons they fill you with fear
       Am                       F/C       
 The trouble it might drag you down
             C                      Gsus 
 If you get lost you can always be found
        C  G/B    Am  G  Am  
 Just know you’re not alone
                      F   C/E   G/D        C
 'Cause I’m going to make this place your home



Interlude 
 F/C             C              Am               Gsus     
Oooh ooh-ooh ooh-ooh ooh-oooh,  oooh-ooh-ooh-oooh
 F/C             C                    Gsus     
Oooh ooh-ooh ooh-ooh ooh-oooh oooh-oooh
 F/C           C           Am              Gsus     
Ahhh ahh-oh oh-oh oh-ohh,  ahhh ah-oh-ohhh
 F/C           C            Gsus     
Ahhh ahh-oh oh-oh oh-ohh ohhh
 F/C           C           Am             Gsus     
Ahhh ahh-oh oh-oh oh-ohh,  ahhh ah-oh-ohhh
 F/C           C            Gsus     
Ahhh ahh-oh oh-oh oh-ohh ohhh


Verse 3
  C        Csus           C      Csus
 Settle down, it'll all be clear
  C                       Csus                       C     Csus
 Don't pay no mind to the demons they fill you with fear
       Am                       F/C        
 The trouble it might drag you down
             C                      Gsus 
 If you get lost you can always be found
        C  G/B    Am  G  Am  
 Just know you’re not alone
                      F   C/E   G/D        C
 'Cause I’m going to make this place your home


Interlude 
 F/C           C           Am             Gsus     
Ahhh ahh-oh oh-oh oh-ohh,  ahhh ah-oh-ohhh
 F/C           C            Gsus     
Ahhh ahh-oh oh-oh oh-ohh ohhh
 F/C           C           Am             Gsus     
Ahhh ahh-oh oh-oh oh-ohh,  ahhh ah-oh-ohhh
 F/C           C            Gsus     
Ahhh ahh-oh oh-oh oh-ohh ohhh
 N.C.   
Ahhh ahh-oh oh-oh oh-ohh,  ahhh ah-oh-ohhh
    
Ahhh ahh-oh oh-oh oh-ohh ohhh







            
            
Suggest correction
Creating personal tab
Creating personal tab
You can edit any tab online and save it as your Personal.

You can edit, replace or remove any tab part or add personal notes – all changes will be seen only by you.

Personal tabs can be accessed anytime from any device, even offline.
Learn more »
Give kudos to tab author, rate the tab!
1 2 3 4 5
comments
print report bad tab
guest
You may want to rate the tab now too:
select rating
Wanna post a correction for this tab? Suggest correction