Oops, an error
Loading. Please wait.

Bitter Monday Tab

4,776 views 9 this week
no commentswrite comment
1 2 3 4 5
excellent!
x 6
add to favorites
launch autoscroll
font size
0
reset
how to read this tab
guitar tuner
Tab Pro tools
  • play this tab
  • loop segment
  • change instrument
  • show fretboard
  • metronome
×
Best way to learn
"Bitter Monday"
Autoscroll
slow
fast
+/-
esc
set tempo
stop
Contributor
Difficulty
Tuning
intermediate
D# G# C# F# A# D#
Philip Sayce - Bitter Monday
Eb Tuning

Intro Riff

e|-----0----|----|----------------------------------------------------------|
B|----------|----|----3-----3-----------------------------------------------|
G|-0h2---2--|-x3-|----------------------------------------------------------|
D|----------|----|-/4---4-5-------------------------------------------------|
A|----------|----|----------------------------------------------------------|
E|----------|----|----------------------------------------------------------|

Verse Chords: |A7|C5|D9|D9|

*On D9, sometimes slide up to E9

Pre-Chorus Chords: |C5|Dsus2|F|E7|G|

Chorus Chords: |A|C5|D5| x2

After chorus chords go around once, he plays a little riff;

e|--------------------------------------------------------------------------|
B|--------------------------------------------------------------------------|
G|------7----7--------------------------------------------------------------|
D|-7----7h9--7--------------------------------------------------------------|
A|-7h9----------10-9-7-5----------------------------------------------------|
E|--------------------------------------------------------------------------|

Back To Intro and re-do all above.

Solo: (Using a wah-pedal)

e|-----5------------------------|-----5-----8-------8-10br-8-10r-8----------|
B|---5---8b~--8r-8-5------------|---5---/10---10-10----------------10-10----|
G|-7b----------------7-5-7---5~-|-7b----------------------------------------|
D|-------------------------7----|-------------------------------------------|
A|------------------------------|-------------------------------------------|
E|------------------------------|-------------------------------------------|

e|-8----------------10-12---------------12b-10-12------------|
B|--10p8-----10-13b-------13bb-10----10-----------13b-13b-10-|
G|------9/11----------------------/11------------------------|
D|-----------------------------------------------------------|
A|-----------------------------------------------------------|
E|-----------------------------------------------------------|

e|-------------5-|---5-------5----7rp5---8rp5---10r10p8---12r12p10--------|
B|-----------5---|-8b--8p5-8b-8p5------8------8--------10----------13-----|
G|-/7-7-5-7b-----|--------------------------------------------------------|
D|---------------|--------------------------------------------------------|
A|---------------|--------------------------------------------------------|
E|---------------|--------------------------------------------------------|

e|-15r15p12---17r17p15----20bb-22b-20p17------------------------------------|
B|---------15----------15----------------20---------------------------------|
G|------------------------------------------19brbrbrp17---------------------|
D|--------------------------------------------------------------------------|
A|--------------------------------------------------------------------------|
E|--------------------------------------------------------------------------|

e|-------17-----------------------------------------------------------------|
B|----17----20b-------20b-------20b-------17--------------------------------|
G|-19b----------19-17-----19-17-----19-17----19-19-etc.---------------------|
D|--------------------------------------------------------------------------|
A|--------------------------------------------------------------------------|
E|--------------------------------------------------------------------------|

Hope This Helps.

Ciaran Hosty
comments
print report bad tab
I want to post or [tab]
guest
You may want to rate the tab now too:
select rating
Please do not post tabs as comments. Select "correction" instead!